Lord Of The Rings Theme Tab por Howard Shore

tablatura Ukulele sin acordes.

Añadir esta tab a su SongBook
Tablature / ChordsFont size: A- A A+

¿ No sabe cómo leer una tablatura o un acorde ?

curso de ukulele

A|-------0----------0-2-5-4-0------------|
E|---0-2---2-0----2-----------2-3-2-0----|
C|-2-----------2-------------------------|
G|---------------------------------------|
(repeat)
A|---------------------------------------|
E|--------------------0-1--0-------------|
C|-2--2-2-0--0-0-2--2--------2-----------|
G|-----------------------------0--2------|
(repeat)

 

Comentarios (0)
Ningún comentario :(
¿Necesitas ayuda, un consejo para compartir o simplemente quieres hablar sobre esta canción? Comience la discusión

Debes iniciar sesión para unirte a la discusión
o Registrarse

 

Acerca de esta canción

No hay información por esta canción.