Concerning Hobbits (lord Of The Rings Shire Theme) Tab por Howard Shore

3 Acordes utilizados en la canción: D, G, A

Añadir esta tab a su SongBook
Tablature / ChordsFont size: A- A A+

¿ No sabe cómo leer una tablatura o un acorde ?

curso de ukulele

D D
A|--------x---0-----------------------|
E|--------2------2---0---2-0----------|
C|--2-4---2-------------------2-------|
G|--------2---------------------------|


G G
A|------0---2---5---4---0-------------------|
E|--2-------3---------------2-----3-2-------|
C|----------2-------------------------4-----|
G|----------0-------------------------------|


D D G G D D A A D D
A|--------x---0------------------------0---2---0----------x-------x-------0--|
E|--------2-------2-0-----0--------2-------3-------2------2-------0-------2--|
C|--2-4---2-------------2----2-------------2--------------2-------1-------2--|
G|--------2--------------------------------0--------------2-------2-------2--|

 

Comentarios (0)
Ningún comentario :(
¿Necesitas ayuda, un consejo para compartir o simplemente quieres hablar sobre esta canción? Comience la discusión

Debes iniciar sesión para unirte a la discusión
o Registrarse

 

Acerca de esta canción

No hay información por esta canción.