Smoke On The Water (Riff) Tab por Deep Purple

tablatura Ukulele sin acordes.

Añadir esta tab a su SongBook
Tablature / ChordsFont size: A- A A+

¿ No sabe cómo leer una tablatura o un acorde ?

curso de ukulele

three different versions of the riff for ukulele


A|--0--3--5---0--3--6--5---0--3--5--3--0--|
E|--0--3--5---0--3--6--5---0--3--5--3--0--|
C|--0--3--5---0--3--6--5---0--3--5--3--0--|
G|----------------------------------------|



A|----------------------------------------|
E|-----1--3------1--4--3------1--3--1-----|
C|--2---------2------------2-----------2--|
G|--0--3--5---0--3--6--5---0--3--5--3--0--|



A|----------------------------------------|
E|-----2--4------2--5--4------2--5--2-----|
C|--3---------3------------3-----------3--|
G|----------------------------------------|

 

Comentarios (2)
Debes iniciar sesión para unirte a la discusión
o Registrarse

 

Dagoth_Ur avatar
flag for CA(ISO2) (Colborne)
A nice, more complicated version of an easy riff, for those who wish for more of a challenge
29 Feb 2020
Mermmadermma avatar
flag for US(ISO2) (Germantown)
the top is the most accurate i’d say
10 Dec 2019
Acerca de esta canción

No hay información por esta canción.