Holy Diver (Intro) Tab por Dio

tablatura Ukulele sin acordes.

ImprimirAñadir esta tab a su SongBook
Tablature / ChordsFont size: A- A A+

¿ No sabe cómo leer una tablatura o un acorde ?

curso de ukulele

Intro
A|-3--3-3-3--3-3-3--5--6-|-3--3-3-3--3-5-6--1-|-3--3-3-3--3-5-6--1-|-3--1--3___-|
E|-3--3-3-3--3-3-3--5--6-|-3--3-3-3--3-5-6--1-|-3--3-3-3--3-5-6--1-|-3--1--3___-|
C|-----------------------|--------------------|--------------------|------------|
G|-----------------------|--------------------|--------------------|------------|
|__|_| |__|_| |__| | |__|_| |__|_| | | |__|_| |__|_| | | | | |

A|-3--3-3-3--3-3-3--5--6-|-3--3-3-3--3-5-6--1-|-3--3-3-3--3-5-6--1-|-3--1-----------1-|
E|-3--3-3-3--3-3-3--5--6-|-3--3-3-3--3-5-6--1-|-3--3-3-3--3-5-6--1-|-3--1--4____--4-1-|
C|-----------------------|--------------------|--------------------|-------3____--3---|
G|-----------------------|--------------------|--------------------|------------------|
|__|_| |__|_| |__| | |__|_| |__|_| | | |__|_| |__|_| | | | | | |_|

 

Comentarios (0)
Ningún comentario :(
¿Necesitas ayuda, un consejo para compartir o simplemente quieres hablar sobre esta canción? Comience la discusión

Debes iniciar sesión para unirte a la discusión
o Registrarse

 

Acerca de esta canción

No hay información por esta canción.