Smoke On The Water (Intro) Tab por Deep Purple

tablatura Ukulele sin acordes.

Añadir esta tab a su SongBook
Tablature / ChordsFont size: A- A A+

¿ No sabe cómo leer una tablatura o un acorde ?

curso de ukulele

A-------3-5-----3-6-5------3-5--3------
E----5--3-5--5--3-6-5---5--3-5--3---5--
C----5-------5----------5-----------5--
G--------------------------------------

A-------3-5-----3-6-5------3-5--3------
E----5--3-5--5--3-6-5---5--3-5--3---5--
C----5-------5----------5-----------5--
G--------------------------------------

 

Comentarios (4)
Debes iniciar sesión para unirte a la discusión
o Registrarse

 

bamboolele avatar
flag for CA(ISO2) (Montreal)
Notes on the C & E strings are wrong.
24 Oct 2013
felipejs avatar
flag for BR(ISO2) (Campinas)
it depends ! but it do sound better
19 Nov 2011
ukecolby avatar
flag for US(ISO2) (Fuquay Varina)
sounds good, but a bit more complex than other tabs of the riff
08 Nov 2011
bass_solo avatar
Probably easier just to use the chords, chords sound better too
04 Nov 2011
Acerca de esta canción

No hay información por esta canción.