Smoke On The Water (Riff) Tab por Deep Purple

tablatura Ukulele sin acordes.

Añadir esta tab a su SongBook
Tablature / ChordsFont size: A- A A+

¿ No sabe cómo leer una tablatura o un acorde ?

curso de ukulele

A||----------------------|---------------------|
E||--3----6----8------3--|----6----9--8--------|
C||--2----5----7------2--|----5----8--7--------|
G||----------------------|---------------------|


|----------------------|-------------------||
|--3----6----8------6--|----3--------------||
|--2----5----7------5--|----2--------------||
|----------------------|-------------------||

 

Comentarios (0)
Ningún comentario :(
¿Necesitas ayuda, un consejo para compartir o simplemente quieres hablar sobre esta canción? Comience la discusión

Debes iniciar sesión para unirte a la discusión
o Registrarse

 

Acerca de esta canción

No hay información por esta canción.