Don't Call Me Peanut Tab por Bayside

tablatura Ukulele sin acordes.

Añadir esta tab a su SongBook
Tablature / ChordsFont size: A- A A+

¿ No sabe cómo leer una tablatura o un acorde ?

curso de ukulele

S     ~      S         S                       
A|-------2------------3---------5--0-------------|
E|----0--0--------1---0-----3---0----------------|
C|---0---------2---------------------------------| F|-------0----------2----2----4------------------|
S ~ ~
A|-------2-----3-3-------------------------------|
E|----0--0-----1-1--2-----2----------------------|
C|---0---------5----3-----3----------------------|
F|-------0-------2--5-----5----------------------|
A|-0-7-0----7--------7---7---7-------------------|
E|--------4---4--3-3---3---3---3-----------------|
C|-----------------------------------------------|
F|---2------2--------0---0---0-------------------|
A|--38----510--10--10-------------------------------|
E|-1----/3-----8--8-------------------------------|
C|-------------12--10-------------------------------|
F|---2-----4---9--9-------------------------------|
H H P S S S
A|-0---2-3-0-2-3-2-----2----------------------------------|
E|---0-----0----------4-0--404---5-----------4-------8----|
C|-----------------2------------5-------5--------4---8----|
F|-----2-----2----2------4--4------4-5--5------5--4--9----|
H H P S S S
A|-0---2-3-0-2-3-2-----2----------------------------------------|
E|---0-----0----------4-0--40---5-------------------------------|
C|-----------------2-----------5-------5----4--7-7-7-7-7-7-7----|
F|-----2-----2----2------4--4-----4-5--5----4--7-7-7-7-7-7-7----|
S ~ S S
A|-------2------------3---------5--0-------------|
E|----0--0--------1---0-----3---0----------------|
C|---0---------2---------------------------------| F|-------0----------2----2----4------------------|
S ~ ~
A|-------2-----3-3-------------------------------|
E|----0--0-----1-1--2-----2----------------------|
C|---0---------5----3-----3----------------------|
F|-------0-------2--5-----5----------------------|
A|-0-7-0----7--------7---7---7-------------------|
E|--------4---4--3-3---3---3---3-----------------|
C|-----------------------------------------------|
F|---2------2--------0---0---0-------------------|
A|--38----510--10----------------------------------|
E|-1----/3-----8---\3 ----------------------------|
C|-------------12----------------------------------|
F|---2-----4---9----------------------------------|
H H P S S S
A|-0---2-3-0-2-3-2-----2----------------------------------|
E|---0-----0----------4-0--404---5-----------4-------8----|
C|-----------------2------------5-------5--------4---8----|
F|-----2-----2----2------4--4------4-5--5------5--4--9----|
H H P S S S
A|-0---2-3-0-2-3-2-----2-----------------------------------------|
E|---0-----0----------4-0--404---5-------------------------------|
C|-----------------2------------5-------5----4--7-7-7-7-7-7-7----|
F|-----2-----2----2------4--4------4-5--5----4--7-7-7-7-7-7-7----|
S S S
A|-0----0----0----------*-------------2*-2-----3---2-3---------|
E|---------------------5*-5-----5-4-3-3*-3----0--0-------------|
C|---4----4------4-3-2-2*-2--4--------2*-2---0------2--2-------|
F|---5----5------------5*-5-----------0*-0-----0-----0---------|
S ~ H P S H H
A|-----------------------------------------------------|
E|-------5----5---5----3--3--------3-------3---3-------|
C|-------------------5---------------------------------|
F|--5--4--------4-------------5--7----5--7---4---------|
~ H ~ H H H P
A|--------------------------------------------------------------|
E|------5-3-----------------5-----------------------------------|
C|-----------------------------------5-------5--6---5-----------|
F|-4--------7--9--7-4--5--------5--7----5--7------7---7--5------|
S P H ~ S H P S
A|-------------------------------------------------------|
E|--5--4--3-------3---3---------------6-6----6-5-3-1-----|
C|---------------------------5--4-2----------------------|
F|-----------5--7---4--------------5------5--------------|
S S S
A|-0----0----0----------------------------------|
E|--------------------51------3--------5--------|
C|---4----4------4-3-2-22-2-4-44-4-5--5--5------|
F|---5----5------------------4------5-----------|
H
A|---------------7------7------7-------------------|
E|---------------10-----10-----10------------------|
C|-7-7-7-7-7-7-7-7-7-7-7-7-7-7------------------|
F|-7-7-7-7-7-7-7-12-7-7-12-7-7-12--5---------------|
H H P S S S
A|-0---2-3-0-2-3-2-----2----------------------------------|
E|---0-----0----------4-0--404---5-----------4-------8----|
C|-----------------2------------5-------5--------4---8----|
F|-----2-----2----2------4--4------4-5--5------5--4--9----|
H H P S S S ~
A|-0---2-3-0-2-3-2-----2-----------------------------------------|
E|---0-----0----------4-0--404---5-------------------------------|
C|-----------------2------------5-------5----4--7-7-7-7-7-7-7----|
F|-----2-----2----2------4--4------4-5--5----4--7-7-7-7-7-7-7----|

 

Comentarios (0)
Ningún comentario :(
¿Necesitas ayuda, un consejo para compartir o simplemente quieres hablar sobre esta canción? Comience la discusión

Debes iniciar sesión para unirte a la discusión
o Registrarse

 

Acerca de esta canción

No hay información por esta canción.