Nemesis Tab por Arch Enemy

tablatura Ukulele sin acordes.

Añadir esta tab a su SongBook
Tablature / ChordsFont size: A- A A+

¿ No sabe cómo leer una tablatura o un acorde ?

curso de ukulele

# Tune the g and C C strings down 1/2 step
# The tuning should be f# B B E E A A
# It's way more metal this way

# Intro
---------------------------------------------
-0-0-12-0-13-0-0-15-0-13-0-0-0h12h13-0h10h12-
---------------------------------------------
---------------------------------------------
# Play 8x

# Verse
-8---7-----8---7-----5---5/7-------
-8---7-----8---7-----5---5/7-------
-6---5-----6---5-----3---3/5-------
-6---5-----6---5-----3---3/5-------

-8---7--------3--5--6--------------
-8---7-----3--1--3--4--------------
-6---5-----1-----------------------
-6---5-----------------------------

-8---7-----8---7-----5---5/7-------
-8---7-----8---7-----5---5/7-------
-6---5-----6---5-----3---3/5-------
-6---5-----6---5-----3---3/5-------

-8---7--------3--5--6-----6--8--9--
-8---7-----3--1--3--4--6--4--6--7--
-6---5-----1-----------4-----------
-6---5-----------------------------

# Play intro 4x

# Hook
-------------------7---8---5--------
-5-----5---7---8--------------------
------------------------------------
------------------------------------

-------------------5---7----3----2--
-/3----3---5---7--------------------
------------------------------------
------------------------------------

-------------------7---8---5--------
-3/5---5---7---8--------------------
------------------------------------
------------------------------------

-10p8-10-----------10/12------------
-----------8---8--------------------
------------------------------------
------------------------------------

# Play verse again

# Breakdown
---------------------------------
---------------------------------
-5-5-5---5---5---5---5---5---5---
---------------------------------

---------------------------------
---------------------------------
-5-5-5---5---5---5---5---5---5---
---------------------------------

-7------7------7------7------7---
-7------7------7------7------7---
-5------5------5------5------5---
-5------5------5------5------5---

-7-7-7---7---7---7---7---7---7---
-7-7-7---7---7---7---7---7---7---
-5-5-5---5---5---5---5---5---5---
-5-5-5---5---5---5---5---5---5---

-7-7-7---7---7---7---7---7---7---
-7-7-7---7---7---7---7---7---7---
-5-5-5---5---5---5---5---5---5---
-5-5-5---5---5---5---5---5---5---

---------------------3---2---5---
-----------------0---------------
---------2---1-------------------
-0---4---------------------------

-8---7---------------------------
---------0---3---2---0-----------
-------------------------2---0---
---------------------------------

# Play the hook again

-------------------9---10--7-----
-7-----7---9---10----------------
---------------------------------
---------------------------------

-------------------7---9---7-----
-5-----5---7---9---------------9-
---------------------------------
---------------------------------

-------------------9---10--7-----
-5/7---7---9---10----------------
---------------------------------
---------------------------------

-12p10-12-------------12/14---14-
------------10---10--------------
---------------------------------
---------------------------------

# Play the intro 1x and end on this
----------------------------------------------
-0h12h13-0h10h12-0h8h10-0h7h8-0h5h7-0h4h5-5\--
------------------------------------------5\--
----------------------------------------------

 

Comentarios (0)
Ningún comentario :(
¿Necesitas ayuda, un consejo para compartir o simplemente quieres hablar sobre esta canción? Comience la discusión

Debes iniciar sesión para unirte a la discusión
o Registrarse

 

Acerca de esta canción

No hay información por esta canción.