Hammer Smashed Face Tab por Cannibal Corpse

tablatura Ukulele sin acordes.

Añadir esta tab a su SongBook
Tablature / ChordsFont size: A- A A+

¿ No sabe cómo leer una tablatura o un acorde ?

curso de ukulele

# Tune the C C string down 1/2 step to B B.
# This tab is not in the same key as the original version of the song.
# This way is easier to play on the ukulele.

(Intro: Play 3 times)

A----------------|----------------|----------------|---------5-5-4--|
E-2--2--2---6\---|-2--2--2---6\---|-2--2--2---6\---|----------------|
B-0--0--0---6\---|-0--0--0---6\---|-0--0--0---6\---|-0-0-2-2--------|
g----------------|----------------|----------------|----------------|

A----------------|----------------|----------------|----------------|
E-2--2--2---2-2--|-2--2--2---2-2--|-2--2--2--2-2-2-|----------------|
B-0--0--0---0-0--|-0--0--0---0-0--|-0--0--0--0-0-0-|----------------|
g----------------|----------------|----------------|----------------|


(Bass solo)

A-------3---------|
E-2---2---3---3---|
B---0-------1---0-|
g-----------------|


(Riff 1)

A-----9-----------|-----9-----------|-----9-----------|-----9-----------|
E-----------------|-----------------|-----------------|-----------------|
B-7-----7-8-2-0-1-|-7-----7-8-2-0-1-|-7-----7-8-2-0-1-|-7-----7-8-2-0-1-|
g-----------------|-----------------|-----------------|-----------------|


(Riff 2)

A-----3-----------|-----3-----------|-----3-----------|-----3-----------|
E-2-----2-3-------|-2-----2-3-------|-2-----2-3-------|-2-----2-3-------|
B-----------2-0-1-|-----------2-0-1-|-----------2-0-1-|-----------2-0-1-|
g-----------------|-----------------|-----------------|-----------------|


(Play Riff 1 again)


(Riff 3: Every time you play the 6th fret of the B B string, do a pinch harmonic.)

A-----------------|-----------------|-----------------|-----------------|
E-----------------|-----------------|-----------------|-----------------|
B-2--3--2--6--0---|-2--3--2--6--0---|-2--3--2--6--0---|-2--3--2--6--0---|
g-----------------|-----------------|-----------------|-----------------|

A-----------------|-----------------|-----------------|-----------------|
E-----------------|-----------------|-----------------|-----------------|
B-2--3--2--6--0---|-2--3--2--6--0---|-2--3--2--6--0---|-2--3--2--6--0---|
g-----------------|-----------------|-----------------|-----------------|


(Fill)

A---------|
E------2--|
B--3-2-0--|
g---------|


(Riff 4: The part of the song people actually recognise)
(Play twice)

A-2h5p2--1h4p1--4-4--7--------|-----------------------------|
E---------------2-2--5--2-1---|--3h6p3-2h5p2--5-5--8--------|
B---------------------------3-|---------------3-3--6--3-2-0-|
g-----------------------------|-----------------------------|


(Riff 5: Pinch harmonic on 6th fret of B B string again)

A-----------------------------|-----------------------------|
E-2h5p2--1h4p1----------------|-2h5p2--1h4p1----------------|
B---------------2h3p2--6--0---|---------------2h3p2--6--0---|
g-----------------------------|-----------------------------|

A-----------------------------|-----------------------------|
E-2h5p2--1h4p1----------------|-2h5p2--1h4p1----------------|
B---------------2h3p2--6--0---|---------------2h3p2--6--0---|
g-----------------------------|-----------------------------|


(Play the fill again, then play riff 4 twice.)

(The rest of the song just repeats these riffs until the slow grinding riff)

A------------------------------|
E-2-2-2--------------------7\--|
B-0-0-0---2-----------1-1--7\--|
g------------------------------|

(Put a lot of vibrato on the 2nd fret of the B B string.)

(The song comes to an abrupt ending on this chord)

A-2-|
E-2-|
B-0-|
g---|

 

Comentarios (0)
Ningún comentario :(
¿Necesitas ayuda, un consejo para compartir o simplemente quieres hablar sobre esta canción? Comience la discusión

Debes iniciar sesión para unirte a la discusión
o Registrarse

 

Acerca de esta canción

No hay información por esta canción.