This Is Halloween (Intro) Tab por Marilyn Manson

tablatura Ukulele sin acordes.

ImprimirAñadir esta tab a su SongBook
Tablature / ChordsFont size: A- A A+

¿ No sabe cómo leer una tablatura o un acorde ?

curso de ukulele

intro:                                                         
a|----------------------------------------------------------------|
E|-----------------3-3-3--3-4-------------4-3-3-3--3-4-------4-3--|
d|--7--7--7--7----------------5--5--5--5---------------5--5-------|
g|--5--5--5--5----------------------------------------------------|
verse: boys and girls of every age....
a|----------------------------------------------------------------|
E|--3-3-3-3-3-4--------------------3-4-3--3-3-3-4-6--4-3----------|
d|--------------5--5---5--5--5--5---------------------------------|
g|----------------------------------------------------------------|
in our town of halloweeen... this is halloween....
a|-------------------------------------------------------------------|
E|-----------3-4--3-----3-----6--6--6--5--3--6--6--6--5--3--6--------|
d|--5--5--5---------3-2----------------------------------------6--5--|
g|-------------------------------------------------------------------|
...................this is halloween....
a|-------------------------------------------------------------------|
E|---------3-4--------------6--4-----------6--4----3----------4-4----|
d|--5--3-2--------------------------------------------6--4-----------|
g|-----------------4--4--4--------4--4--4-------4----------6---------|

 

Comentarios (0)
Ningún comentario :(
¿Necesitas ayuda, un consejo para compartir o simplemente quieres hablar sobre esta canción? Comience la discusión

Debes iniciar sesión para unirte a la discusión
o Registrarse

 

Acerca de esta canción

No hay información por esta canción.