Song Of Storms Uke tab by Zelda

Ukulele Tab without chords.

8.8/10
PrintAdd tab to your SongBook

Tablature / Chords (Full Song)

Font size: A- A A+

Artist: 
Album:  unknown
Key: unknownTablature (no chords)
A|------5-----5---7--8--7--8--7--3--0--0----------0--0--------------------|
E|----1-----1-------------------------------1--3-----------1--3--0--------|
C|-2-----2-------------------------------2--------------2-----------------|
G|------------------------------------------------------------------------|



A|------5------5--7--8--7--8--7--3--0--0----------0--0--------------------|
E|----1-----1-------------------------------1--3--------------------------|
C|-2-----2-------------------------------2--------------2-----------------|
G|------------------------------------------------------------------------|

⇢ Not happy with this tab? View 3 other version(s)

Uke tab by , 12 Jan 2018

Tab comments (1)

Something to say?
Share your strumming patterns, chords or tips to play this tab! ;)
Filter by:
SugaryMelodies avatar
The next part is:
A ---- 0 -- 0 ------ 2 --------- 3 -- 3-----2
E ------------------------------------------------
C -2 ----------- 4 -------- 5------------- 4 --
G ------------------------------------------------
12 Jan 2018
Correction

Top Tabs & Chords by Zelda, don't miss these songs!

About this song: Song Of Storms

No information about this song.

Did you cover Song Of Storms on your Ukulele? Share your work!
Submit a cover