Lost At Sea Uke tab by Zedd

1 Chords used in the song :

Add tab to your SongBook

View these chords for the Baritone

Transpose chords:
Tablature / ChordsFont size: A- A A+

Don't know how to read a tab or a chord ? Check out these uke lessons:

How to read uke tabs
Reading chord diagrams


Main Riff/Intro
D#----------------------------------------------------|
A#----------------------------------------------------|
F#-------9-----9---------7----- p h ------------------
C#-----7-----7---------7----- ------------------------ Plays times
G#--- ----- ----- -7- -----3--------------------------
C#----------------------------------------------------|

(Pre-Chorus Clean)
D#------------------------------|
A#------------------------------|
F#------- p h ------------------
C#----- ------------------------ Plays times
G#---3--------------------------|
C#------------------------------|

(Pre-Chorus Lead Distortion)



A chordA.H.
D#----------------------------------------------------|
A#-----3----------------------------------------------|
F#----------------------------------------------------|
C#----------------------------------------------------|
G#----------------------------------------------------|
C#----------------------------------------------------|

(Chorus Lead Distortion) First Part
D#----------------------------------------------------|
A#----------------------------------------------------|
F#----------------------------------------------------|
C#--777- -7777---333333--- -7- --- ----------
G#--777- -7777---333333---33333- - --- ----------
C#--777- -7777---333333----------- --- ----------


(Chorus Lead Distortion) Second Part
D#----------------------------------------------------|
A#----------------------------------------------------|
F#----------------------------------------------------|
C#--777- -7777---333333--- ---- ----------
G#--777- -7777---333333--- ---- ----------
C#--777- -7777---333333--- ---- ----------

This part I know has more notes then what I've got but really these are the ones that
hear most so you can cut corners

(2nd Verse)
D#---------------------------------|
A#--- - ------- - --- -1 ----------
F#-------7- - -----7---------------
C#--------------------------------- Plays times
G#---------------------------------|
C#---------------------------------|

Do another run through of the Pre-Chorus section and then yet another run of the Chorus
exact patterns and number of repeats

Break First Part Guitar 1
P.M.
D#-------------------------------------------------------------------------|
A#-------------------------------------------------------------------------|
F#--9999-9999-9999---7777---9999-9999-9999---------------------------------|
C#--7777-7777-7777--- ---7777-7777-7777--- -----------------------
G#--7777-7777-7777--- ---7777-7777-7777--- -----------------------
C#--7777-7777-7777--- ---7777-7777-7777--- -----------------------

Break Second Part Guitar 1
P.M. P.M.
D#---------------------------------------------------------|
A#---------------------------------------------------------|
F#--9999-9999-9999------------9999-9999-9999---------------|
C#--7777-7777-7777--- ---7777-7777-7777--- ------ Repeat twice
G#--7777-7777-7777--- ---7777-7777-7777--- ------
C#--7777-7777-7777--- ---7777-7777-7777--- ------

Break Second Part Guitar

D#-- -777- ------------ -777- ----------
A#-- - - ------------ - - ----------
F#----------------------------------------------------|
C#----------------------------------------------------|
G#----------------------------------------------------|
C#----------------------------------------------------|

Break Third Part Guitar 1

You can figure out the strumming for this bit but there are the chords to play

D#-------------------------------|
A#-------------------------------|
F#-------------------------------|
C#--3-7-1 ---3- -----------------
G#--3-7-1 ---3- -----------------
C#--3-7-1 ---3- -----------------

Chorus again repeats times

Ending Solo - Note I made this bit up slightly I have the notes correct but the octave
them might be higher but this bit sounds right to me as is You can also just make up
solo within a pentatonic box

End on the last harmonic notes

(Outro Solo - Lead)

A chordA.H. A chordA.H.
D#----------------------------------------- --------------------
A#------ ----------- -1 - - ------------- --------------------
F#-- - ---- - - - - -----------9-7--------- --- -----------7----
C#----------------------------------------- --------------------
G#----------------------------------------- --------------------
C#----------------------------------------- --------------------

Outro Guitar - Clean

 

Tab comments (0)
No comment yet :(
Need help, a tip to share, or simply want to talk about this song? Start the discussion!

You must be logged in to join the discussion
or Register

 

About this song

No information about this song.