Ukulele Lady Uke tab by Unknown

Ukulele Tab without chords.

Rate song!
PrintAdd tab to your SongBook

Tablature / Chords (Full Song)

Font size: A- A A+

Artist: 
Album:  unknown
Key: unknownTablature (no chords)
A--------------0----------0-------------------------------
E-3-3-3-2-3-2-3--3-2-3-2-3-----------------0-----------0--
C-----------------------------2-2-2-1-2-1-2--2-1-2-1-2----
G---------------------------------------------------------

A---------------2-3--
E-3-3-3-2-3-1-3------
C--------------------
G--------------------

⇢ Not happy with this tab? View 1 other version(s)

Uke tab by , 17 Jan 2010

Tab comments (2)

Something to say?
Share your strumming patterns, chords or tips to play this tab! ;)
Filter by:
l.weston avatar
doesnt sound right
02 Aug 2011
Comment
DavidDhani avatar
flag for CA(ISO2) (Ottawa)
I could have made the timing better
20 Jan 2010
Comment

About this song: Ukulele Lady

No information about this song.

Did you cover Ukulele Lady on your Ukulele? Share your work!
Submit a cover