Morph Uke tab by Twenty One Pilots

1 Chords used in the song :

Add tab to your SongBook

View these chords for the Baritone

Transpose chords:
Tablature / ChordsFont size: A- A A+

Don't know how to read a tab or a chord ? Check out these uke lessons:

How to read uke tabs
Reading chord diagrams


A|-------4---0-4--------------------------|
E|---0-4---2------------------------------|
C|-1--------------------------------------|
G|----------------------------------------|


A|-------4---0-4--------------------------|
E|---0-4---2------------------------------|
C|-1--------------------------------------|
G|----------------------------------------|


A|-----7-6-4-4----------------------------|
E|----------------------------------------|
C|-0-4------------------------------------|
G|----------------------------------------|



A|-------4-2-2----------------------------|
E|---0-4-------4--------------------------|
C|-1--------------------------------------|
G|----------------------------------------|

not done
not done
not done
osh dun

 

Tab comments (1)
You must be logged in to join the discussion
or Register

 

bishop_ avatar
what the hell???
14 Jun 2019
About this song

No information about this song.