You're A Mean One, Mr Grinch Uke tab by Traditional

Ukulele Tab without chords.

PrintAdd tab to your SongBook
Tablature / ChordsFont size: A- A A+

Don't know how to read a tab or a chord ? Check out these uke lessons:

Detailed guide to strumming and picking
How to read uke tabs
Reading chord diagrams

Intro:
A-------------------------------------------
E-------3-----0--------3-----0--------------
C----4----6-4---4---4----6-4---4------------
G-------------------------------------------

A-------------------------------------------
E-------3-----0--------3-----0--------------
C----4----6-4---4---4----6-4---4---4-5-4----
G-------------------------------------------

Verses
A--------------------------------------
E---3-5----------------3-----5---------
C---------4----------------------------
G-------4-----------------4------------

A------------------------6-------------
E--3-5-----------------2---------------
C--------------4-----------------------
G------4---------6---------------------

A------7-------------------------------
E-------------------5------------------
C---------2----------------------------
G--4-4-------5--4--5-------------------

A--------------------------------------
E---------------5----------------------
C------2-------------------------------
G--4-5----5--4-----4-------------------

A--------------6-7-6-7-----6---6-7-----
E---3--2-------------------------------
C---------4----------------------------
G----------------------------6---------

 

Tab comments (1)
You must be logged in to join the discussion
or Register

 

Benpaco avatar
flag for US(ISO2) (California)
Not quite, I thin.
15 Jan 2012
About this song

No information about this song.