Skye Boat Song Uke tab by Traditional

Ukulele Tab without chords.

Add tab to your SongBook
Tablature / ChordsFont size: A- A A+

Don't know how to read a tab or a chord ? Check out these uke lessons:

Detailed guide to strumming and picking
How to read uke tabs
Reading chord diagrams

#Not mine. Tabs from Ultimate-Guitar transposed with this site's tool #          


A|--------------3-----3---3-|-5------5-------|------5------------------|-----|
E|--------------------------|-----0------3---|-0---------0-------------|-----|
C|--------------------------|----------------|-------------------------|-----|
G|-0----2---0---------------|----------------|---------------2------2--|-0---|

A|--------------3-----3---3-|-5------5-------|------5------------------|-----|
E|--------------------------|-----0------3---|-0---------0-------------|-----|
C|--------------------------|----------------|-------------------------|-----|
G|-0----2---0---------------|----------------|---------------2------2--|-0---|

A|------3------------|--5--------5-----5---|-3----------3-----3---3--|-------|
E|-0--------0-----0--|---------------------|-------------------------|-------|
C|-------------------|---------------------|-------------------------|-------|
G|-------------------|-------2-------------|--------2----------------|-2-----|

A|------3------------|--5--------5-----5---|-3----------3-----3---3--|------|
E|-0--------0-----0--|---------------------|-------------------------|------|
C|-------------------|---------------------|-------------------------|------|
G|-------------------|-------2-------------|--------2----------------|-2--0-|

 

Tab comments (0)
No comment yet :(
Need help, a tip to share, or simply want to talk about this song? Start the discussion!

You must be logged in to join the discussion
or Register

 

About this song

No information about this song.