Jongens Heb Je ’'t Al Vernomen Uke tab by Traditional

Ukulele Tab without chords.

Add tab to your SongBook
Tablature / ChordsFont size: A- A A+

Don't know how to read a tab or a chord ? Check out these uke lessons:

Detailed guide to strumming and picking
How to read uke tabs
Reading chord diagrams

A-------------------------------------------------------------------------
E------3-3-6--6--3------------4-------------------------------------------
C--3-3-------------3-5--5--5----2-5--3-3-3--------------------------------
G-------------------------------------------------------------------------

A-------------------------------------------------------------------------
E------3-3-6--6--3------------4-------------------------------------------
C--3-3-------------3-5--5--5----2-5--3-3-3--------------------------------
G-------------------------------------------------------------------------

A-------------------------------------------------------------------------
E----------------6--6--4-4---6--4-4-3-3-----------------------------------
C-------------------------------------------------------------------------
G--5-5-8--7--5-5-----------5----------------------------------------------

A-------------------------------------------------------------------------
E-------------4-------3-6-------------4-----------------------------------
C--3-5--5--5----2-3-3------3-5--5--5----2-5--3-3-3------------------------
G-------------------------------------------------------------------------

Jongens heb je ’'t al vernomen
Tralala li, ti ralala la
Sinterklaas is aangekomen
Tralala li, ti ralala la
Laat ons zingen hand in hand
Sinterklaas is weer in ’t land
Tralala li, ti ralala la
Ti ralala li, ti ralala la

Mooie winkels, aller wegen,
Tralala li, ti ralala la
Prachtig speelgoed lacht ons tegen
Tralala li, ti ralala la
Laat ons zingen hand in hand
Sinterklaas is weer in ’t land
Tralala li, ti ralala la
Ti ralala li, ti ralala la

Alle kinderen hup’len en springen
Tralala li, ti ralala la
Alle kinderen juigen en zingen
Tralala li, ti ralala la
Laat ons zingen hand in hand
Sinterklaas is weer in ’t land
Tralala li, ti ralala la
Ti ralala li, ti ralala la

 

Tab comments (0)
No comment yet :(
Need help, a tip to share, or simply want to talk about this song? Start the discussion!

You must be logged in to join the discussion
or Register

 

About this song

No information about this song.