Hoor Wie Klopt Daar Kind'ren Uke tab by Traditional

Ukulele Tab without chords.

Add tab to your SongBook
Tablature / ChordsFont size: A- A A+

Don't know how to read a tab or a chord ? Check out these uke lessons:

Detailed guide to strumming and picking
How to read uke tabs
Reading chord diagrams

A----------3-3-3-----------3-3-3-------5-4-5-4-5-----3-----------------3|
E--------0---------------0--------------------------0-------------------|
C-----------------------------------------------------------------------|
G--0-0------------0-0-------------0-0----------------------0-0----------|

A---------------3--------5-4-5-4-5---3--------------------3---5-4-5----3----------|
E------1-1-1-0------0---------------0--------------1-1-0----0--------0------------|
C---------------------------------------------------------------------------------|
G---2--------------0--------------------2---0-0-2---------------------------------|

Hoor wie klopt daar kind'ren,
Hoor wie klopt daar kind'ren.
Hoor wie tikt daar zachtjes tegen 't raam.
't Is een vreemd'ling zeker,
die verdwaalt is zeker.
'k Zal eens even vragen naar zijn naam:
Sint Nicolaas, Sint Nicolaas
brengt ons vanavond een bezoek
en strooit dan wat lekkers
in d' één of andere hoek.

Stoute kind'ren, zegt hij,
krijgen knorren, zegt hij,
of een zakje, zegt hij, met wat zout.
Want je weet wel, zegt hij
dat Sint Nicolaas, zegt hij
van die stoute kind'ren heel niet houdt.
Sint Nicolaas, Sint Nicolaas
brengt ons vanavond een bezoek
en strooit dan wat lekkers
in d' één of andere hoek.

 

Tab comments (0)
No comment yet :(
Need help, a tip to share, or simply want to talk about this song? Start the discussion!

You must be logged in to join the discussion
or Register

 

About this song

No information about this song.