Hoor De Wind Waait Door De Bomen Uke tab by Traditional

Ukulele Tab without chords.

Add tab to your SongBook
Tablature / ChordsFont size: A- A A+

Don't know how to read a tab or a chord ? Check out these uke lessons:

Detailed guide to strumming and picking
How to read uke tabs
Reading chord diagrams

A------2----2-5-2---2-3---5-3-2---2-3-----------
E-----------------------0---------------0-2-----
C--2-2---2--------------------------------------
G-------0--0------2-------------2-----2-----0---
2X (play twice)

A--2-2-2-2-2-2---2-2-----2-----5-----2-------2-5-2---2-3---5-3-2---2-3----------
E--------------0-----------------------------------------0---------------0-2----
C--------------------------------2-2-----2--------------------------------------
G--------------------2-0---2-0---------0---0-------2-------------2-----2-----0--

Hoor de wind waait door de bomen,
hier in huis daar waait de wind.
Zou de goede Sint wel komen,
nu hij het weer zo lelijk vindt?
Nu hij het weer zo lelijk vindt.

Ja hij komt in donkere nachten,
op zijn paardje o zo snel,
als hij wist hoe zeer wij wachten,
ja gewis dan kwam hij wel,
ja gewis dan kwam hij wel....

 

Tab comments (0)
No comment yet :(
Need help, a tip to share, or simply want to talk about this song? Start the discussion!

You must be logged in to join the discussion
or Register

 

About this song

No information about this song.