De Herdertjes Lagen Bij Nachte Uke tab by Traditional

Ukulele Tab without chords.

Add tab to your SongBook
Tablature / ChordsFont size: A- A A+

Don't know how to read a tab or a chord ? Check out these uke lessons:

Detailed guide to strumming and picking
How to read uke tabs
Reading chord diagrams

De herdertjes lagen bij nachten,  zij lagen bij nacht in het veld.
-------3-----5-3-2-3-5---------5------5------5-3----------------------
-----------0---------------1-0----0-1-0---0-0-------------------------
----------------------------------------------------------------------
---0------------------------------------------------------------------

Zij hielden getrouwende wachte, zij hadden hun schaapjes geteld.
-------3-----5-3-2-3-5-------5---------5------5-3---------------------
-----------0---------------1-0----0-1-0---0-0-------------------------
----------------------------------------------------------------------
---0------------------------------------------------------------------

Toen hoorden zij engelen zingen, hun liederen vloeiend en klaar.
--5-5---5-3-2------------3-2-3-3-2------------------------------------
-------0--------------------------------------------------------------
----------------------------------------------------------------------
------------------2-2-0-0---------------2-0---------------------------

De herders naar Bethlehem gingen, 't liep tegen het nieuwe jaar.
---3-2-3-5-3-5---------------5-3------5-3-----------------------------
-------------------0-1-3--1-0-------0---------------------------------
----------------------------------------------------------------------
-0--------------------------------------------------------------------

 

Tab comments (0)
No comment yet :(
Need help, a tip to share, or simply want to talk about this song? Start the discussion!

You must be logged in to join the discussion
or Register

 

About this song

No information about this song.