Animal I Have Become Uke tab by Three Days Grace

Ukulele Tab without chords.

PrintAdd tab to your SongBook
Tablature / ChordsFont size: A- A A+

Don't know how to read a tab or a chord ? Check out these uke lessons:

Detailed guide to strumming and picking
How to read uke tabs
Reading chord diagrams

|-00----------7-------------------------------------------------|
|-00------7-8---8-7---------------------------------------------|
|---------------------------------------------------------------|
|---------------------------------------------------------------|

|-00----------7-------------------------------------------------|
|-00------7-8---8-7---------------------------------------------|
|-22------------------------------------------------------------|
|---------------------------------------------------------------|

|-00----------7-------------------------------------------------|
|-00------7-8---8-----------------------------------------------|
|-22------------------------------------------------------------|
|---------------------------------------------------------------|

|-33-333-333-333----------00------7----------00------7----------|
|-33-333-333-333--3(P.H)v-00--7-8---8-7------00--7-8---8--------|
|-55-555-555-555------------------------------------------------|
|---------------------------------------------------------------|

|--33-333-333-333-3-555-555-5-8~--------------------------------|
|--33-333-333-333-3-555-555-5-8~--------------------------------|
|--55-555-555-555-5-777-777-7-10---------------------------------|
|---------------------------------------------------------------|


|-55-5--5--8--5---33----------55-5--5--5--5---33-55-32---------------------|
|--------8----11-5-56--------------11-33-10---------------------|
|-44-14-14-14-14--77-11-1112--44-14-14-14-14--77-99-76---------------------|
|----5-5-14-5--------------5-5-5-5-------------------------------|

|-00-10-10-10-10--33-7-78--00-10-10-10-10--33--5-3-2~-------------------|
|-00-10-10-10-10--33-7-78--00-10-10-10-10--33--5-3-2~-------------------|
|-22-12-12-12-12--55-9-910--22-12-12-12-12--55--7-5-4--------------------|
|---------------------------------------------------------------|
~ ~
|------------------------------------------------------------------------|
|---------------------------------------------------------------|
|---------------------------------------------------------------|
|-7--7--9--9--10--10--14---14--15--7--7--9--9--10--10--12---10--9--------|

|-00----------7------00----------7------------------------------|
|-00------7-8---8-7--00------7-8---8----------------------------|
|---------------------------------------------------------------|
|---------------------------------------------------------------|

|-33-333-333-333----------00------7----------00------7----------|
|-33-333-333-333--3(P.H)v-00--7-8---8-7------00--7-8---8--------|
|-55-555-555-555------------------------------------------------|
|---------------------------------------------------------------|

|--33-333-333-333-3-555-555-5-8~--------------------------------|
|--33-333-333-333-3-555-555-5-8~--------------------------------|
|--55-555-555-555-5-777-777-7-10---------------------------------|
|---------------------------------------------------------------|
s
|-55-5--5--8--5---33----------55-5--5--5--5---33-55-32---------------------|
|--------8----11-5-56--------------11-33-10---------------------|
|-44-14-14-14-14--77-11-1112--44-14-14-14-14--77-99-76---------------------|
|----5-5-18-5--------------5-5-5-5-------------------------------|

|-00-10-10-10-10--33-7-78--00-10-10-10-10--33--5-3-2-0~-----------------|
|-00-10-10-10-10--33-7-78--00-10-10-10-10--33--5-3-2-0~-----------------|
|-22-12-12-12-12--55-9-910--22-12-12-12-12--55--7-5-4-2------------------|
|---------------------------------------------------------------|
~ ~
|------------------------------------------------------------------------|
|---------------------------------------------------------------|
|---------------------------------------------------------------|
|-7--7--9--9--10--10--14---14--15--7--7--9--9--10--10--12---10--9--------|

|-88-888-555-5----7-----00-000-333-333-3------------------------|
|-88-888-555-5--8---8-7-00-000-333-333-3------------------------|
|-1010-101010-777-7----------22-222-555-555-5------------------------|
|---------------------------------------------------------------|

|-88-888-8--5-12-------12--0~~------------------------------------|
|-88-888-8-----------------0~~------------------------------------|
|-1010-101010-10-----------------2--------------------------------------|
|----------------3-9-3--------------------------------------------|

|-00----------7-------------------------------------------------|
|-00------7-8---8-7---------------------------------------------|
|---------------------------------------------------------------|
|---------------------------------------------------------------|

|-55-5--5--8--5---33----------55-5--5--5--5---33-55-32---------------------|
|--------8----11-5-56--------------11-33-10---------------------|
|-44-14-14-14-14--77-11-1112--44-14-14-14-14--77-99-76---------------------|
|----5-5-14-5--------------5-5-5-5-------------------------------|

|-00-10-10-10-10--33-7-78--00-10-10-10-10--33--5-3-2-0~-----------------|
|-00-10-10-10-10--33-7-78--00-10-10-10-10--33--5-3-2-0~-----------------|
|-22-12-12-12-12--55-9-910--22-12-12-12-12--55--7-5-4-2------------------|
|---------------------------------------------------------------|
~ ~
|------------------------------------------------------------------------|
|---------------------------------------------------------------|
|---------------------------------------------------------------|
|-7--7--9--9--10--10--14---14--15--7--7--9--9--10--10--12---10--9--------|

|-00----------7-------------------------------------------------|
|-00------7-8---8-7---------------------------------------------|
|-22------------------------------------------------------------|
|---------------------------------------------------------------|

|---------------------------------------------------------------|
|---5-6----6-5--------------------------------------------------|
|-2-----4-------------------------------------------------------|
|--------v------------------------------------------------------|

|-0~~~~~--------------------------------------------------------|
|-0~~~~~--------------------------------------------------------|
|-2-------------------------------------------------------------|
|---------------------------------------------------------------|

 

Tab comments (0)
No comment yet :(
Need help, a tip to share, or simply want to talk about this song? Start the discussion!

You must be logged in to join the discussion
or Register

 

About this song

Gontier has stated that while addicted to the painkiller OxyContin, he had become abusive and angry and had no idea who he was anymore. He wrote "Animal I Have Become" while in rehab for his addiction.