Sleepwalking Uke tab by This Is Wildlife

Ukulele Tab without chords.

Add tab to your SongBook
Tablature / ChordsFont size: A- A A+

Don't know how to read a tab or a chord ? Check out these uke lessons:

Detailed guide to strumming and picking
How to read uke tabs
Reading chord diagrams

A |-------------------------------3-----------------------------------2-----------------------------2-|
E |-0-----------------------------0-----------------------------------0-----------------------------3-|
C |-0-----------------------------------------------------------------4-----------------------------2-|
G |-0-----------------------------2-----------------------------------0-----------------------------0-|

A |-7--7--7--7--5--5--7--7--------------------------------------------------------------------------|
E |----------------------------------------------------------3--3--3--------5--5--3--3--2--2--2--2--|
C |-------------------------------------------------------------------------------------------------|
G |-------------------------4--4--5--4--4--4--5--5--4--4--4-----------4--4--------------------------|
P S
A |-3-----------3--------------0--------3--5-----2--2-----2-----------------2-----2-------------------|
E |----0--0-----------0-----------0--------------------0--------0--------3----------------------------|
C |-2--------------------------------------------4-----------------------------2--------2-------------|
G |----------0-----0-----0-----------2-----------0-----------0-----0-----------------0-----0----------|
P P S
A |-3-----------3--2-----------0--------3--5--2-------------------------------------------------------|
E |----0--0--------------0--------0-------------------------------------------------------------------|
C |-2-----------------------------------------4-------------------------------------------------------|
G |----------0--------0-----0--------2--------0-------------------------------------------------------|

A |-------------------------------3-----------------------------------2-----------------------------2-|
E |-0-----------------------------0-----------------------------------0-----------------------------3-|
C |-0-----------------------------------------------------------------4-----------------------------2-|
G |-0-----------------------------2-----------------------------------0-----------------------------0-|

A |----------3-----------0--------3--------------2-----------2--------2-----------2-----------3-------|
E |----0-----------0--------0-----------0-----------0-----0-----0--3--------------------0-----------0-|
C |-0-----------------------------------------4--------------------------2-----2-----0----------------|
G |-------0-----0-----0--------2-----2-----2-----------0--------------------0--------------0-----0----|

A |----0--------3--------------2--------------------------------2-------------------------------------|
E |-------0-----------0--------0--------------------------------3-------------------------------------|
C |-------------------------------------------------------------2-------------------------------------|
G |-0--------2-----2-----2-----0--------------------------------0-------------------------------------|

A |-------------------------------3-----------------------------------2-----------------------------2-|
E |-0-----------------------------0-----------------------------------0-----------------------------3-|
C |-0-----------------------------------------------------------------4-----------------------------2-|
G |-0-----------------------------2-----------------------------------0-----------------------------0-|

A |----------------------------------------------2--------------------------------------------------2-|
E |-0--------------------------------------------0--------------------------------------------------3-|
C |-0--------------------------------------------4--------------------------------------------------2-|
G |-0--------------------------------------------0--------------------------------------------------0-|
S S
A |-7--7-----7--7--7-----7--7--7-----7--7--7-----7--------------------------------------------------7-|
E |-------3-----------3-----------3-----------3-----4--4-----4--4--4-----4--4--4--6--4--4--4--6--4----|
C |---------------------------------------------------------------------------------------------------|
G |-------------------------------------------------------5-----------5-------------------------------|

A |-7--7--7--7--7--------------5---5---5---5---5-----------------------------------------------8---8---8---8---8-----|
E |-3--3--3--3--3-----------------------------------------6--6--6--6--6-------------------------------|
C |----------------------------5--5--5--5--5--------------5--5--5--5--5--------------5--5--5--5--5----|
G |-5--5--5--5--5--------------5--5--5--5--5-----------------------------------------8--8--8--8--8----|

A |-------------------------------3-----------------------------------2-----------------------------2-|
E |-0-----------------------------0-----------------------------------0-----------------------------3-|
C |-0-----------------------------------------------------------------4-----------------------------2-|
G |-0-----------------------------2-----------------------------------0-----------------------------0-|

A |-------------------------------3-----------------------------------2-----------------------------2-|
E |-0-----------------------------0-----------------------------------0-----------------------------3-|
C |-0-----------------------------------------------------------------4-----------------------------2-|
G |-0-----------------------------2-----------------------------------0-----------------------------0-|
H
A |-2-----2--------3-----------2-----2-----2-----2----------------------------------------------------|
E |----0-----0--------0-----0--3-----------3--0-----0-------------------------------------------------|
C |-4-----------0--------0--------2-----2-------------------------------------------------------------|
G |-------0-----4--------0-----------0-----------0----------------------------------------------------|

A |-2-----------------------------------------------------------------------------------------------2-|
E |-0--------------------------------------------0--------------------------------------------------3-|
C |-4--------------------------------------------0--------------------------------------------------2-|
G |-0--------------------------------------------0--------------------------------------------------0-|

A |-------------------------------3-----------------------------------2-----------------------------2-|
E |-0-----------------------------0-----------------------------------0-----------------------------3-|
C |-0-----------------------------------------------------------------4-----------------------------2-|
G |-0-----------------------------2-----------------------------------0-----------------------------0-|

A |-7--7--7--7--7--------------5---5---5---5---5-----------------------------------------------8---8---8---8---8-----|
E |-3--3--3--3--3-----------------------------------------6--6--6--6--6-------------------------------|
C |----------------------------5--5--5--5--5--------------5--5--5--5--5--------------5--5--5--5--5----|
G |-5--5--5--5--5--------------5--5--5--5--5-----------------------------------------8--8--8--8--8----|

A |-7--7--7--7--5--5--7--7----------------------------------------------------------------------------|
E |----------------------------------------------------------3--3--3--------5--5--5--3--3--2--2--2--2-|
C |---------------------------------------------------------------------------------------------------|
G |-------------------------4--4--5--4--4--4--5--5--4--4--4-----------4--4----------------------------|

A |-------------------------------3-----------------------------------2-----------------------------2-|
E |-0-----------------------------0-----------------------------------0-----------------------------3-|
C |-0----------------------------------------------------------------------------------------------2-|
G |-0-----------------------------2-----------------------------------0-----------------------------0-|

 

Tab comments (0)
No comment yet :(
Need help, a tip to share, or simply want to talk about this song? Start the discussion!

You must be logged in to join the discussion
or Register

 

About this song

No information about this song.