Drop Baby, Drop Uke tab by The Mana?o Company

4 Chords used in the song: Am, C#m, Bm, E7

6.3/10
PrintAdd tab to your SongBook

Tablature / Chords (Simplified Song)

Font size: A- A A+

Album:  unknown
Difficulty: 
2.5
(Beginner)
Key: A, F#mChords and Tablature
Intro Picking(Optional)(Use the Am Am chord)
A 0-0----0----------0h2-2-0----0-0----2P0--0--2p0--0--2p0--0-
E 0--0--0---2s4-------------4------2------4-------4-------4--
C 1----1-----------------------------------------------------
G 2----------------------------------------------------------

A 0-0----0----------0h2-2--4-4--0-0---
E 0--0--0---2s4---------------------2-
C 1----1------------------------------
G 2-----------------------------------
s = slide, h = hammer-on, p = pull-off

Chord Progression:Am,C#m,Bm,E7

Strumming:
Down-Chunk-Up, Up-Down(Do this ONCE for every chord, then switch to the next one. Listen to the song to get the idea)

Uke tab by , 15 Mar 2011

Tab comments (0)

No comment yet :(
Need help, a tip to share, or simply want to talk about this song? Start the discussion!

Something to say?
Share your strumming patterns, chords or tips to play this tab! ;)

Top Tabs & Chords by The Mana?o Company, don't miss these songs!

About this song: Drop Baby, Drop

No information about this song.

Did you cover Drop Baby, Drop on your Ukulele? Share your work!
Submit a cover