Patience Uke tab by The Lumineers

Ukulele Tab without chords.

Rate song!
PrintAdd tab to your SongBook

Tablature / Chords (

Font size: A- A A+

Artist: 
Album: 
Year:  2016
Difficulty: 
3.5
(Intermediate)
Key: unknownTablature (no chords)
# Ryhthm part:
C C F F
C C F F Fm Fm
C C D D F F Fm Fm
C C D D F F

# Riff:

A|-3-----3---3-3-----3---3--|
E|--------------------------|
C|---0-0---0-----0-0---0----|
G|--------------------------|

A|-3-----3---3-5---5--6---6-7-----7---7---|
E|----------------------------------------|
C|---0-0---0-----2------3-----4-4---4-----|
G|----------------------------------------|

A|-7-----7---7-7---7-----7---5-----5---5--|
E|----------------------------------------|
C|---4-4---4-----4---4-4---4---2-2---2----|
G|----------------------------------------|


A|-3-----3---3-3-----3---3--|
E|--------------------------|
C|---0-0---0-----0-0---0----|
G|--------------------------|

A|-3-----3---3-5---5--6---6-7-----7---7---|
E|----------------------------------------|
C|---0-0---0-----2------3-----4-4---4-----|
G|----------------------------------------|

A|-10---10-8---8-7-----7---7-7-----7-5-----5---5--|
E|------------------------------------------------|
C|----7------5-----4-4---4-----4-4-----2-2---2----|
G|------------------------------------------------|

Uke tab by , 21 Oct 2016

Tab comments (0)

No comment yet :(
Need help, a tip to share, or simply want to talk about this song? Start the discussion!

Something to say?
Share your strumming patterns, chords or tips to play this tab! ;)

Top Tabs & Chords by The Lumineers, don't miss these songs!

About this song: Patience

No information about this song.

Did you cover Patience on your Ukulele? Share your work!
Submit a cover