Short Change Hero (Riff) Uke tab by The Heavy

Ukulele Tab without chords.

Add tab to your SongBook
Tablature / ChordsFont size: A- A A+

Don't know how to read a tab or a chord ? Check out these uke lessons:

Detailed guide to strumming and picking
How to read uke tabs
Reading chord diagrams

~        ~    ~ ~ ~      ~        ~    ~ ~ ~      ~        ~    ~ ~ ~    
A||---------7-7--------7---|---------7-7--------7---|---------7-7--------7---|
E||-------4----------4-----|-------4----------4-----|-------4----------4-----|
C||--1---1-----------------|--1---1-----------------|--1---1-----------------|
G||--------6-------6-------|--------6-------6-------|--------6-------6-------|
~ ~ ~ ~ ~ ~ ~ ~ ~ ~ ~ ~ ~ ~ ~
A||---------7-7--------2---|--2---2--6-6--------6---|----------4---------4---|
E||-------4----------4-----|-------2----------2-----|------2-----------2-----|
C||--1---1-----------------|------------------------|--6---------------------|
G||--------6-------6-------|--------4-------4-------|-------3-------3--------|
~ ~ ~ ~ ~ ~ ~ ~
A||---------7-7--------7---|---------7-7----------|
E||-------4----------4-----|-------4----------4---|
C||--1---1-----------------|--1---1---------------|
G||--------6-------6-------|--------6-------6-----|

 

Tab comments (0)
No comment yet :(
Need help, a tip to share, or simply want to talk about this song? Start the discussion!

You must be logged in to join the discussion
or Register

 

About this song

According to the Short Change Songfacts, this song was inspired by a relative of The Heavy lead singer Kelvin Swaby who fell on the wrong side of the law.