Journey Of The Sorcerer (hitchhikers Guide To The Galaxy Film Theme) Uke tab by The Eagles

Ukulele Tab without chords.

Rate song!
PrintAdd tab to your SongBook

Tablature / Chords (

Font size: A- A A+

Artist: 
Album:  unknown
Key: unknownTablature (no chords)
P             P          H                P       H         
A---0--------5-3--2-----3--5-3-----3--2-3-----------3--5-3--3--2-3------|
E---0-------------------1---------------------2-----2-------------------|
C---4-------------------------------------------------------------------|
G---2----------------2--2------------------2-----2--2-------------------|
P H P H
A------------3--5-3-----3--2-3-----0-----3-----3--3--5-3-----3--2-3-----|
E------1-----1------------------------0--0-----0--0--0----------0-------|
C-----------------------------------------------------------------------|
G---2-----2--2------------------2--------2-----2--2---------------------|
P H
A------3--------3-----3--3--5-3-----3--2-3-----3--------3-----3--3------|
E---------1-----0-----0--0--0----------0----------2-----0-----0--0------|
C-----------------------------------------------------------------------|
G---2--------2--2-----2--2------------------2--------2--2-----2--2------|
P H P H
A---5-3-----3--2-3-----3--------3-----3--3--5-3-----3--2-3-----3--------|
E---0----------0----------1-----0-----0--0--0----------0----------------|
C-----------------------------------------------------------------2-----|
G-------------------2--------2--2-----2--2------------------2-----------|
H P H H
A-------3--------3--3--5-3-----3--2-3-----3-------3--------3--3--5------|
E----0-----------0--0--0----------0----------0-1-----------0--0--0------|
C-----------------------------------------------------------------------|
G----------2-----2--2------------------2-------------2-----2--2---------|
P H H P H
A----3-----3--2-3-----3-------3--------3--3--5-3-----3--2-3-----3-------|
E-------------0----------1-2-----------0--0--0----------0----------2----|
C-----------------------------------------------------------------------|
G------------------2-------------2-----2--2------------------2----------|
P P H
A-------3--------3--3--5-3-----3--2-3-----3--------3-----------2--------|
E----1-----------0--0--0----------0-------------0--0-----0--0--0--------|
C--------------------------------------------0-----------0--0-----------|
G----------2-----2--2------------------2-----------0-----0--0--1--------|
P
A------2--2--2--2--2--------5-----5--------5--5--5--5--3-2--0--0--------|
E------0--0--0--0--0--------3-----2--------2--2--0--0--0----0--0--------|
C---------------------------2-----2--------2--2--2--2--2----------------|
G------1--1--1--1--1--------2-----2--------2--2--0--0--0----2--2--------|
H H H
A---3--3-----5-----5--------5--5--5--5--3-2-----3-2-----3-2-----5-------|
E---0--0-----3-----2--------2--2--0--0--------------------------3-------|
C------------2-----2--------2--2--2--2--------------------------2-------|
G---2--2-----2-----2--------2--2--0--0-------2-------2----------2-------|
P H
A---5--------5--5--5--5--3-2--0--0-----3--3--3--3--5-----5--3-2--0------|
E---2--------2--2--0--0--0----0--0-----0--0--0--0--0-----0--0----0------|
C---2--------2--2--2--2--2----------------------------------------------|
G---2--------2--2--0--0--0----2--2-----2--2--0--0--0-----0--0----2------|
P
A------0--0--0--0--0-----5-----5--------5--5--5--5--3-2--0--0-----3-----|
E------0--0--0--0--0-----3-----2--------2--2--0--0--0----0--0-----0-----|
C------------------------2-----2--------2--2--2--2--2-------------------|
G------2--2--2--2--2-----2-----2--------2--2--0--0--0----2--2-----2-----|
H H H
A---3-----5-----5--------5--5--5--5--3-2-----3-2-----3-2-----5-----5----|
E---0-----3-----2--------2--2--0--0--------------------------3-----2----|
C---------2-----2--------2--2--2--2--------------------------2-----2----|
G---2-----2-----2--------2--2--0--0-------2-------2----------2-----2----|
P H
A---------5--5--5--5--3-2--0--0-----3--3--3--3--5-----5--3-2--0---------|
E---------2--2--0--0--0----0--0-----0--0--0--0--0-----0--0----0---------|
C---------2--2--2--2--2-------------------------------------------------|
G---------2--2--0--0--0----2--2-----2--2--0--0--0-----0--0----2---------|

Uke tab by , 31 Jan 2019

Tab comments (0)

No comment yet :(
Need help, a tip to share, or simply want to talk about this song? Start the discussion!

Something to say?
Share your strumming patterns, chords or tips to play this tab! ;)

Top Tabs & Chords by The Eagles, don't miss these songs!

About this song: Journey Of The Sorcerer (hitchhikers Guide To The Galaxy Film Theme)

No information about this song.

Did you cover Journey Of The Sorcerer (hitchhikers Guide To The Galaxy Film Theme) on your Ukulele? Share your work!
Submit a cover