Eight Days A Week Uke tab by The Beatles

Ukulele Tab without chords.

7/10
PrintAdd tab to your SongBook

Tablature / Chords (

Font size: A- A A+

Artist: 
Album: 
Year:  2000
Key: unknownTablature (no chords)
||---0------0----0----2------2----2-----1------1----1------0-|
||---1------1----1----3------3----3---1-1--1h3-3--1-1--0h1-1-|
||-0-0--0h2-2--0-0--2-2--2h4-4--2-2-----2------2----2------0-|
||---2------2----2----0------0----0-----3------3----3------2-|

|-0-0----0----0----0------2----2----1----1--1-1--1-1--0-0---|
|---1--3-3--1-1--3-3--1h3-3----3----1--1-1----1----1----1---|
|---0----0----0----0------2--2-2--2-2----2----2----2----0---|
|---2----2----2----2------0----0----3----3----3----3----2---|

|-0-0----0----0----0------2----2----1----1--1-1--1-1--0-0---|
|---1--3-3--1-1--3-3--1h3-3----3----1--1-1----1----1----1---|
|---0----0----0----0------2--2-2--2-2----2----2----2----0---|
|---2----2----2----2------0----0----3----3----3----3----2---|

|-0-0----0----1----1--0-0----0----2----2--0-0----0----0-----|
|---1--1-1--3-3----1----1--1-1--2-3----3----1--3-3--1-1-----|
|---2----2----2--2-2----2----2----2--2-2----0----0----0-----|
|---2----2----0----3----2----2----0----0----2----2----2-----|

|---0------2----2----1----1--1-1--1-1--0-0------0-----------|
|-3-3--1h3-3----3----1--1-1----1----1----1--3p1-1-----------|
|---0------2--2-2--2-2----2----2----2----0------0-----------|
|---2------0----0----3----3----3----3----2------2-----------|

|------------------------0----0----0----0--------0----------|
|-3-3--3-3--3/5-3-3--1-3-3--1-1--3-3--1-1--3p1---1----------|
|---0----0--------0------2----2----2----2------2-2----------|
|---0----0--------0------2----2----2----2--------2----------|

|---2----2--0---2------1----1----1----1----3----3----3------|
|---3----3------3--1-3-3--1-1--3-3--1-1--3-3--3-3--6-6------|
|---2----2------2------2----2----2----2----4----4----4------|
|-0-0--0-0----0-0------0----0----0----0----0----0----0------|

|-0-0----0----0----0------2----2----1----1--1-1--1-1--0-0---|
|---1--3-3--1-1--3-3--1h3-3----3----1--1-1----1----1----1---|
|---0----0----0----0------2--2-2--2-2----2----2----2----0---|
|---2----2----2----2------0----0----3----3----3----3----2---|

|-0-0----0----0----0------2----2----1----1--1-1--1-1--0-0---|
|---1--3-3--1-1--3-3--1h3-3----3----1--1-1----1----1----1---|
|---0----0----0----0------2--2-2--2-2----2----2----2----0---|
|---2----2----2----2------0----0----3----3----3----3----2---|

|-0-0----0----1----1--0-0----0----2----2--0-0----0----0-----|
|---1--1-1--3-3----1----1--1-1--2-3----3----1--3-3--1-1-----|
|---2----2----2--2-2----2----2----2--2-2----0----0----0-----|
|---2----2----0----3----2----2----0----0----2----2----2-----|

|---0------2----2----1----1--1-1--1-1--0-0------0----1----1-|
|-3-3--1h3-3----3----1--1-1----1----1----1--3p1-1----1--1-1-|
|---0------2--2-2--2-2----2----2----2----0------0--2-2----2-|
|---2------0----0----3----3----3----3----2------2----3----3-|

|-1-1--1-1--0-0------0----1----1--1-1--1-1--3--||
|---1----1----1--3p1-1----1--1-1----1----1--1--||
|---2----2----0------0--2-2----2----2----1--0--||
|---3----3----2------2----3----3----3----3--2--||

⇢ Not happy with this tab? View 5 other version(s)

Uke tab by , 26 May 2010

Tab comments (0)

No comment yet :(
Need help, a tip to share, or simply want to talk about this song? Start the discussion!

Something to say?
Share your strumming patterns, chords or tips to play this tab! ;)

Top Tabs & Chords by The Beatles, don't miss these songs!

About this song: Eight Days A Week

No information about this song.

Did you cover Eight Days A Week on your Ukulele? Share your work!
Submit a cover