Safe And Sound Feat. The Civil Wars Uke tab by Taylor Swift

Ukulele Tab without chords.

Add tab to your SongBook
Tablature / ChordsFont size: A- A A+

Don't know how to read a tab or a chord ? Check out these uke lessons:

Detailed guide to strumming and picking
How to read uke tabs
Reading chord diagrams

H                                      
A |--------------5-----------0-----------3-------------|
E |--------------1--0--------------0-----0-------------|
C |--2-------------------------------------------------|
G |--------2-----------2-------------------------------|
H H H
--------------------------3-----------0--------3----|
--1-----1-----1--------------0--0-----------0-------|
--------------------------2--------------0----------|
--0--2--2-----2-----0--------------0----------------|
H
--------------5-----------0-----------3-------------|
--------------1--0--------------0-----0-------------|
--2-------------------------------------------------|
--2-----2-----------2-------------------------------|
H
--------------3-------------------------------------|
--1-----1-------------------------------------------|
--5-----------------------0-------------------------|
--2-----2-----------2--0----------------------------|
H
--5-----------5-----------0-----------3-------------|
--1-----------1--0--------0-----------0-------------|
--2-----2-----------2-------------------------------|
-----------2-----------2--------2-----------2-------|
H H H
--------------------------3-----------0--------3----|
--1-----1-----1-----1--------0--0-------------------|
--5-----------------------2--------------0----------|
--0--2--2-----2-----0--------------0--------0-------|
H
--------------5-----------0-----------3-------------|
--------------1--0--------------0-----------0-------|
--2-------------------------------------------------|
--0-----2-----------2-----------------2-------------|
H
--------------3-------------------------------------|
--1-----1-----------------------0-----0-------------|
--------------------------0-----------0-------------|
--2-----2-----------0--2----------------------------|
H
--5-----------5-----------0-----------3-------------|
--1-----------1--0--------0-----------0-------------|
--2-----2-----------2-------------------------------|
-----------2-----------2--------2-----------2-------|
H H H
--------------3-----------3-----------0--------3----|
--1--------------------------0--0-----------0-------|
--------------------------2--------------0----------|
--2-----2-----2-----0--2-----------0----------------|

--------------2-----------3-----------5-------------|
--3-----------------------0-----0-----------0-------|
--------2-----------2-------------------------------|
--------------0--------0----------------------------|

----------------------------------------------------|
--------------------0-----0-------------------------|
----------------------------------------------------|
--2-----2-----2--------2--2-------------------------|

--3-----------3-----------5-----------3-------------|
--1-----1-----------1-----------1-----0-------------|
--------------------------------------------2-------|
--------------2--------2--2--------------------0----|
H H
--------------3-----------5-----------5-----3-------|
--3-----0-----3--0--0-----3-----3--0----------------|
--0-------------------------------------------------|
-----------------------0--------------0-----0-------|
H
--------------3-----------5-----------3-------------|
--1-----1-----1-----1-----------1-----0-------------|
--------------------------------------------2-------|
--0--2-----------------2--2--------------------0----|

--------------5--------------------5--5-----3-------|
--3-----0-----0-----0-----------0-----0-------------|
--0-----------------------0-------------------------|
-----------------------0--7-----------------0-------|

--3-----------3-----------5-----------3-------------|
--1-----1-----------1-----------1-----0-------------|
--------------------------------------------2-------|
--------------2--------2--2--------------------0----|
H
--------------3-----------5--------5--5-----3-------|
--3-----0-----3--0--0-----3-----0-------------------|
--0-------------------------------------------------|
-----------------------0--------------0-----0-------|

--0-----------3-----------2--------------------2----|
--0-----------0-----------3-----------0-----0-------|
----------------------------------------------------|
--------2-----------2-----------0-------------------|

--------2-----3-----------3-------------------------|
--0-----------------0-----0-------------------------|
----------------------------------------------------|
--2-----------2--------2----------------------------|
H H H
--5-----------5-----------0--3--------3-------------|
--0--1--------1--0--------------0-----0-----0-------|
--2-----2-----------2-------------------------------|
-----------2-----------2--2-------------------------|
H H H
--------------------------3-----------0--------3----|
--1-----1-----1--------------0--0-------------------|
--------------------------2--------------0----------|
--0--2--2-----2-----0--------------0--------0-------|
H H
--------------5-----------0--3--------3-------------|
--------------1--0--------------0-----0-------------|
--2-------------------------------------------------|
--------2-----------2-----2-------------------------|

--3-----------3--------0--------------3-------------|
--1-----1-----0-----1-----------0-----0-------------|
--------------------------0-----------------2-------|
--2-----------------------0-------------------------|

--5-----5-----0-----3-------|
--0-----1--------0--0--0----|
--2--2-----2----------------|
--------------2-------------|
H H H
--------------------------3-----------0--------3----|
--1-----1-----1--------------0--0-------------------|
--------------------------2--------------0----------|
--0--2--2-----2-----0--------------0--------0-------|
H
--5-----------5-----------0-----------3-------------|
--------------1--0--------------0-----0-----0-------|
--2-----2-----------2-------------------------------|
-----------2-----------2--2-------------------------|
H
--------------3-------------------------------------|
--1-----1-----------------------0-----0-------------|
--------------------------0-----------0-------------|
--2-----2-----------0--2----------------------------|
H H H
--5-----------5-----------0--3--------3-------------|
--0--1--------1--0--------------0-----0-----0-------|
--2-----2-----------2-------------------------------|
-----------2-----------2--2-------------------------|
H
--------------------------------------3-------------|
--1-----1-----1-----------------0-----------0-------|
--------------------------0-------------------------|
--0--2--2-----2-----0-----0-----------0-------------|

--5-----5-----------5-------|-------|
--1-----------3-------------|--1----|
--2--2--------2-------------|-------|
--------2-------------------|-------|

--------------3-------------------------------------|
--1-----------------0--1--1-------------------------|
------------------------L---------------------------|
--------2-------------------------------------------|

 

Tab comments (0)
No comment yet :(
Need help, a tip to share, or simply want to talk about this song? Start the discussion!

You must be logged in to join the discussion
or Register

 

About this song

No information about this song.