Someday Uke tab by Sugar Ray

Ukulele Tab without chords.

8/10
PrintAdd tab to your SongBook

Tablature / Chords (Full Song)

Font size: A- A A+

Artist: 
Year:  2005
Key: unknownTablature (no chords)
S                       
A|-2-----2-----2-----4-----6-7-6-4-2--------------
E|-----0-----0---2-----2-0------------------------
C|------------------------------------------------
G|---1-----1-------2------------------------------

⇢ Not happy with this tab? View 1 other version(s)

Uke tab by , 03 Feb 2013

Tab comments (1)

Something to say?
Share your strumming patterns, chords or tips to play this tab! ;)
Filter by:
SufiyanSam avatar
This is the corrected version, for everyone who still loves this song like me :)

A|-2-----2-----2-----4--9--6/7-6-4-2--------------
E|-----0-----0---2--------------------------------
C|------------------------------------------------
G|---1-----1-------2------------------------------
17 Jan 2019
Correction

Top Tabs & Chords by Sugar Ray, don't miss these songs!

About this song: Someday

No information about this song.

Did you cover Someday on your Ukulele? Share your work!
Submit a cover