Fly Uke tab by Sugar Ray

3 Chords used in the song: G#, C#, D#

Rate song!
PrintAdd tab to your SongBook

Tablature / Chords (Full Song)

Font size: A- A A+

Artist: 
Album: 
Year:  1997
Difficulty: 
6.33
(Intermediate)
Key: G#, FmChords and Tablature
Intro
A|-8--8--8--8---6-6-6-6--5-5-5-5-----------------------|
E|-10-10-10-10--8-8-8-8--6-6-6-6--6-6-6-6---6-4-3-4/6--|
C|--------------------------------5-5-5-5b--5-3-2-3/5--|
G|-----------------------------------------------------|

A|-8--8--8--8---6-6-6-6--5-5-5-5-----------------------|
E|-10-10-10-10--8-8-8-8--6-6-6-6--6-6-6-6---6-4-3-4/6--|
C|--------------------------------5-5-5-5b--5-3-2-3/5--|
G|-----------------------------------------------------|

A|--------------|
E|-4-3-4-3-1-1--|
C|-3-2-3-2-0-0--|
G|--------------|



Verse 1
G# G# C# C# G# G# C# C#
All around the world statues crumble for me
G# G# C# C# G# G# C# C#
Who knows how long I've loved you
G# G# C# C# G# G# C# C#
Everywhere I go people stop and they see
G# G# C# C# G# G# C# C#
Twenty-five years old my mother God rest her soul


Chorus 1 x2
G# G# C# C# G# G# C# C#
I just wanna fly
G# G# C# C#
Put your arms around me, baby
G# G# C# C#
Put your arms around me, baby

A|-8--8--8--8---6-6-6-6--5-5-5-5-----------------------|
E|-10-10-10-10--8-8-8-8--6-6-6-6--6-6-6-6---6-4-3-4/6--|
C|--------------------------------5-5-5-5b--5-3-2-3/5--|
G|-----------------------------------------------------|

A|--------------|
E|-4-3-4-3-1-1--|
C|-3-2-3-2-0-0--|
G|--------------|


Verse 2
G# G# C# C# G# G# C# C#
Dance a little stranger, show me where you've been
G# G# C# C# G# G# C# C#
Love can make you hostage wanna do it again
G# G# C# C# G# G# C# C#
There's no time to think about the starting or the end
G# G# C# C# G# G# C# C#
We'll find out I'm told, my mother she told me so


Chorus 1 x2


Chorus 2
D# D# C# C# G# G# C# C# G# G# C# C#
I just want to fly....


Bridge
G# G# C# C# x6

A|-4-5-4-2--4-5-4-2-|
E|-5-7-5-4--5-7-5-4-|
C|------------------|
G|------------------|


Verse 1


Chorus 1 x2


Chorus 2 x2


Chorus 1 x2


G# G#

⇢ Not happy with this tab? View 1 other version(s)

Uke tab by , 22 Feb 2017

Tab comments (0)

No comment yet :(
Need help, a tip to share, or simply want to talk about this song? Start the discussion!

Something to say?
Share your strumming patterns, chords or tips to play this tab! ;)

Top Tabs & Chords by Sugar Ray, don't miss these songs!

About this song: Fly

No information about this song.

Did you cover Fly on your Ukulele? Share your work!
Submit a cover