Master Blaster Uke tab by Stevie Wonder

Ukulele Tab without chords.

Rate song!
PrintAdd tab to your SongBook

Tablature / Chords (Full Song)

Font size: A- A A+

Artist: 
Year:  1980
Key: unknownTablature (no chords)
A|----------------------------------------|
E|------8-8------8-8-----6-6------4-4-----4-4-----3-3-|
C|--5-5------5-5-----3-3------1-1-----1-1------0-0----|
G|----------------------------------------|



A|----------------------------------------|
E|------1-1-----1-1-----1-1------8-8-------6-6------|
C|--0-0-----0-0-----0-0------0-0------0-0-----------|
G|----------------------------------------|



A|---7-----12--------------------------------|
E|---7-----12--------------------------------|
C|---7-----12--------------------------------|
G|----------------------------------------|

⇢ Not happy with this tab? View 1 other version(s)

Uke tab by , 03 Apr 2016

Tab comments (0)

No comment yet :(
Need help, a tip to share, or simply want to talk about this song? Start the discussion!

Something to say?
Share your strumming patterns, chords or tips to play this tab! ;)

Top Tabs & Chords by Stevie Wonder, don't miss these songs!

About this song: Master Blaster

No information about this song.

Did you cover Master Blaster on your Ukulele? Share your work!
Submit a cover