If I Should Fall From Grace With God Uke tab by Pogues

Ukulele Tab without chords.

Rate song!
PrintAdd tab to your SongBook

Tablature / Chords (

Font size: A- A A+

Artist: 
Year:  1988
Key: unknownTablature (no chords)
A|-7-9-7-4--2-4-2-0--2-4-2-0-------------7-9-7-9-7---|
E|---------------------------2-0-2-5-7-9-------------|
C|---------------------------------------------------|
G|---------------------------------------------------|


A|-7-9-7-4--2-4-2-0--2-4-2-0-----------7-------------|
E|---------------------------2-0-2-5-9--5-7-5-7-5----|
C|---------------------------------------------------|
G|---------------------------------------------------|

Uke tab by , 07 Sep 2012

Tab comments (0)

No comment yet :(
Need help, a tip to share, or simply want to talk about this song? Start the discussion!

Something to say?
Share your strumming patterns, chords or tips to play this tab! ;)

Top Tabs & Chords by Pogues, don't miss these songs!

About this song: If I Should Fall From Grace With God

No information about this song.

Did you cover If I Should Fall From Grace With God on your Ukulele? Share your work!
Submit a cover