Daydream Uke tab by Original Composition

3 Chords used in the song: G, C, D

Add tab to your SongBook
Tablature / ChordsFont size: A- A A+

Don't know how to read a tab or a chord ? Check out these uke lessons:

Detailed guide to strumming and picking
How to read uke tabs
Reading chord diagrams

# This was a random song that I widowed when there was a blackout in
# our area; I thought it sounded kind of nice and it is fairly easy
# to play. I'm not really good at naming things sooo... (Looks at title)

# For easier transitions of finger-picking, the chords used in
# order are G G, C C, G G, and D D.


**Melody Part 1

A|-2-------------2--3-------------3--2-------------2--0-------------0-|
E|---3---3-----3------0---0-----0------3---3-----3------2---2-----2---|
C|-----2-----2----------0-----0----------2-----2----------2-----2-----|
G|---------0----------------0----------------0----------------2-------|

**Melody Part 2

A|-2-------------2--3-------------3--2-----2--0-----0--2---------------|
E|---3---3-----3------0---0-----0------3--------2--------3---3-----3---|
C|-----2-----2----------0-----0----------2--------2--------2-----2---2-|
G|---------0----------------0----------------------------------0-------|

(Repeat Melody 1)

**Melody Part 3

A|-2-------------2--3-------------3--2-----2--0-----0--2-------------2~|
E|---3---3-----3------0---0-----0------3--------2--------3---3-----3---|
C|-----2-----2----------0-----0----------2--------2--------2-----2-----|
G|---------0----------------0----------------------------------0-------|

**Chorus Part 1
# Strum Pattern for every chord with the played chord underneath:
d-d-ddud d-d-ddud d-d-ddud d-d-ddud
G G C C G G D D

d-d-ddud d-d-ddud d~~d d~~d d-d-ddudX
G G C C G G D D G G

**Chorus Part 2

d-d-ddudu d-d-ddudu d-d-ddudu d-d-ddudu
G G C C G G D D

d-d-ddudu d-d-ddudu ddddu ddddu d-d-d-d-d-d-d-d
G G C C G G D D G G

(Repeat Melody Part 1)
(Repeat Melody Part 2)

**Melody Part 4
# This is essentially Melody Part 1, but play the first note of the A A
# string and the note of the G G string slightly louder than the rest of
# the notes for every transition. (Marked with 'v' and '^' for clarity.)

v v v v
A|-2-------------2--3-------------3--2-------------2--0-------------0-|
E|---3---3-----3------0---0-----0------3---3-----3------2---2-----2---|
C|-----2-----2----------0-----0----------2-----2----------2-----2-----|
G|---------0----------------0----------------0----------------2-------|
^ ^ ^ ^

**Melody Part 5
# Slightly different from Melody 3. Same concept as Melody 4 wherein
# select notes are played slightly louder than the rest.
# (Marked with 'v' and '^' for clarity.)

v v v v v
A|-2-------------2--3-------------3--2-----2--0-----0--2-------2~-----|
E|---3---3-----3------0---0-----0------3--------2--------3---3-3~-----|
C|-----2-----2----------0-----0----------2--------2--------2---2~-----|
G|---------0----------------0----------------------------------0~-----|
^ ^

 

Tab comments (2)
You must be logged in to join the discussion
or Register

 

Ecnalite avatar
flag for PH(ISO2) (Antipolo)
Cover has been uploaded (Sorry for low quality >w
14 Nov 2019
Ecnalite avatar
flag for PH(ISO2) (Antipolo)
Will upload a cover or link a sound file in the future~
(n___n)
13 Nov 2019
About this song

No information about this song.