Fireflies Uke tab by Nowell

Ukulele Tab without chords.

Rate song!
PrintAdd tab to your SongBook

Tablature / Chords (Full Song)

Font size: A- A A+

Artist: 
Album:  unknown
Key: unknownTablature (no chords)
A|----2------2----2-------5-3-5------------------------------------|
E|--3----3-3---0------0---------0--------0---0--------0-------0----|
C|------------------0---------------0-2----2------0-2---2---2------|
G|----------------------0----------------------1----------------0--|


A|----2------2---2-------3-5-3-----5-3----------------------------------3--|
E|--3----3-3---0-----0---------1-0---------1-----1------------------1------|
C|-----------------0---------------------0-----0-----0-2---0-2----0--------|
G|---------------------0---------------------2-----0-----2-----0------2----|

Uke tab by , 21 Jun 2011

Tab comments (0)

No comment yet :(
Need help, a tip to share, or simply want to talk about this song? Start the discussion!

Something to say?
Share your strumming patterns, chords or tips to play this tab! ;)

Top Tabs & Chords by Nowell, don't miss these songs!

About this song: Fireflies

No information about this song.

Did you cover Fireflies on your Ukulele? Share your work!
Submit a cover