I Would Die For You Uke tab by Miley Cyrus

6 Chords used in the song :

Add tab to your SongBookprint

View these chords for the Baritone

Transpose chords:
Tablature / ChordsFont size: A- A A+

Don't know how to read a tab or a chord ? Check out these uke lessons:

How to read uke tabs
Reading chord diagrams



Miley Cyrus - I Would Die For You

No capo

[Verse & Bridge]
Am chordAm G6/B chordG6/B
e|---------------------------|---------------------------|
B|---1----1-------1----1-----|---1----1-------1----------|
G|---2----2-------2----2-----|---2----2-------2----------|
D|---2----2-------2----2-----|---2----2-------2----------|
A|-0-0--0-0--0--0-0--0-0--0--|-0-0--0-0--0--0-0--0-2--2--|
E|---------------------------|---------------------------|

C chordC Dsus2 chordDsus2 G chordG
e|---------------------------|---------------------------|
B|---1----1-------1----1-----|---3----3-------0----0-----|
G|---0----0-------0----0-----|---2----2-------0----0-----|
D|---2----2-------2----2-----|-0-0--0-0--0----0----0-----|
A|-3-3--3-3--3--3-3--3-3--3--|---------------------------|
E|---------------------------|--------------3-3--3-3--3--|


[Chorus]
C chordC F chordF G chordG Am chordAm
e|-----------------------|--------------------------|
B|-1------1----1----0----|-1------1------1----1-----|
G|-0------0----2----0----|-2------2------2----2-----|
D|-2------2----3----0----|-2------2------2----2-----|
A|-3-3--3-3--------------|-0-0--0-0----0-0--0-0--0--|
E|-------------1----3----|--------------------------|

C chordC F chordF G chordG Am chordAm (G chordG)
e|-----------------------|--------------------------|
B|-1------1----1----0----|-1------1------1----1--0--|
G|-0------0----2----0----|-2------2------2----2--0--|
D|-2------2----3----0----|-2------2------2----2--0--|
A|-3-3--3-3--------------|-0-0--0-0----0-0--0-0-----|
E|-------------1----3----|-----------------------3--|


[Verse 1]
Am chordAm G6/B chordG6/B C chordC Dsus2 chordDsus2 G chordG
You are everything to me
Am chordAm G6/B chordG6/B C chordC Dsus2 chordDsus2 G chordG
And I I would die for you
Am chordAm
There've been times where I'm up all night
G6/B chordG6/B C chordC Dsus2 chordDsus2 G chordG
Crying in the dark so I sleep with the light on
Am chordAm
I've heard I've got words like a knife
G6/B chordG6/B C chordC Dsus2 chordDsus2 G chordG
That I don't know always choose just so wisely
Am chordAm
But I see trees and their colored leaves
G6/B chordG6/B C chordC Dsus2 chordDsus2 G chordG
When I think about all that we could be


[Chorus]
C chordC F chordF G chordG Am chordAm
When you're gone time moves so slow
C chordC F chordF G chordG Am chordAm (G chordG)
Like the grass I've watched us grow
C chordC F chordF G chordG Am chordAm
I've heard you reap only what you'll sow
C chordC F chordF G chordG Am chordAm (G chordG)
How could I never let you know


[Verse 2]
Am chordAm G6/B chordG6/B C chordC Dsus2 chordDsus2 G chordG
That you are everything to me
Am chordAm G6/B chordG6/B C chordC Dsus2 chordDsus2 G chordG
You're sweeter than candy and better than any childhood dream
Am chordAm
I am yours and you are mine
G6/B chordG6/B C chordC Dsus2 chordDsus2 G chordG
I have your heart I don't even need a ring
Am chordAm G6/B chordG6/B C chordC Dsus2 chordDsus2 G chordG
I'd give up all I have in exchange for who I love more than anything


[Chorus]
C chordC F chordF G chordG Am chordAm
When you're gone time moves so slow
C chordC F chordF G chordG Am chordAm (G chordG)
Like the grass I've watched us grow
C chordC F chordF G chordG Am chordAm
I've heard you reap only what you'll sow
C chordC F chordF G chordG Am chordAm (G chordG)
How could I never let you know


[Bridge]
Am chordAm G6/B chordG6/B C chordC Dsus2 chordDsus2 G chordG
You you are everything to me
Am chordAm G6/B chordG6/B C chordC Dsus2 chordDsus2
And I I would die for you
G chordG
Yeah I would die for you


[Chorus]
C chordC F chordF G chordG Am chordAm
When you're gone time moves so slow I would die
C chordC F chordF G chordG Am chordAm (G chordG)
Like the grass I've watched us grow I would die
C chordC F chordF G chordG Am chordAm
I've heard you reap only what you'll sow I would die
C chordC F chordF G chordG Am chordAm (G chordG)
How could I never let you know I would die for you

 

Tab comments (0)
No comment yet :(
Need help, a tip to share, or simply want to talk about this song? Start the discussion!

You must be logged in to join the discussion
or Register

 

About this song

No information about this song.

0.0803 sec, 5 Q