Malenguena Uke tab by Michael Lucarelli

Ukulele Tab without chords.

Add tab to your SongBook
Tablature / ChordsFont size: A- A A+

Don't know how to read a tab or a chord ? Check out these uke lessons:

Detailed guide to strumming and picking
How to read uke tabs
Reading chord diagrams

A||-----2-----2--2--2--|-----2-----2--2--2--|--0--3-----3--2--3--|
E||-----0--4--0-----0--|-----0--4--0-----0--|-----0-----0-----0--|
C||--4-----------------|--4-----------------|--------0-----------|
G||-----1-----1-----1--|-----1-----1-----1--|-----2-----2-----2--|

A|--0--3-----2-----2--|-----2-----2--2--2--|-----2-----2--2--2--|
E|-----0--3--0-----0--|-----0--4--0-----0--|-----0--4--0-----0--|
C|--------------5-----|--4-----------------|--4-----------------|
G|-----2-----2-----2--|-----1-----1-----1--|-----1-----1-----1--|

A|--0--3-----3--2--3--|--0--3-----3-----3--|
E|-----0-----0-----0--|-----0--3--0-----0--|
C|--------0-----------|--------------5-----|
G|-----2-----2-----2--|-----2-----2-----2--|

A|-----2-----2--2--2--|-----2-----2--2--2--|--0--3--2--3-----3--|-----3-----2-----2--|
E|-----0--4--0-----0--|-----0--4--0-----0--|-----0-----0-----0--|-----0--0--0--1--0--|
C|--4-----------------|--4-----------------|--------------0-----|--2-----------------|
G|-----1-----1-----1--|-----1-----1-----1--|-----2-----2-----2--|-----2-----2-----2--|
H H P
A|--------2----2----|--------5-----5-----|--0-----3-----3-----|--2------------------||
E|--------0----0----|-----0-----0-----0--|-----0-----0-----0--|----------0---3-1----||
C|*--4--------------|--4-----------------|--------------------|----0---2-----------*||
G|*-------1----1----|--------4-----4-----|--------2-----2-----|--------------------*||
S
A|--------2----2----|------------------|--------7---------|-------------------|
E|---0----0----0----|------0--4-4------|----5---5---------|----------3--5--1--|
C|*--4--------------|--4-2-------------|--4---------------|--4----2-----------|
G|*-------1----1----|--------------4---|--------5----5----|-------4-----5-----|

A|--------------2-----|--------------------|--0-----------------|
E|-----0--4--------0--|-----1--4-----1--0--|-----1--5-----1--0--|
C|--4--------2--------|--4--------2--------|--------------------|
G|--------------------|--------------------|-----------5--------|

A|----5---3-----2------|
E|--------0-----1------|
C|--2-----------------*|
G|--4-------2-----2---*|

A|-----2-----2--2--2--|-----2-----2--2--2--|--0--3-----3--2--3--|
E|-----0--4--0-----0--|-----0--4--0-----0--|-----0-----0-----0--|
C|--4-----------------|--4-----------------|--------0-----------|
G|-----1-----1-----1--|-----1-----1-----1--|-----2-----2-----2--|

A|--0--3-----2-----2--|
E|-----0--3--0-----0--|
C|--------------5-----|
G|-----2-----2-----2--|

A|-----2-----2--2--2--|-----2-----2--2--2--|--0--3-----3--2--3--|--0--3-----3-----3--|
E|-----0--4--0-----0--|-----0--4--0-----0--|-----0-----0-----0--|-----0--3--0-----0--|
C|--4-----------------|--4-----------------|--------0-----------|--------------5-----|
G|-----1-----1-----1--|-----1-----1-----1--|-----2-----2-----2--|-----2-----2-----2--|

A|-----2-----2--2--2--|-----2-----2--2--2--|--0--3--2--3-----3--|-----3-----2-----2--|
E|-----0--4--0-----0--|-----0--4--0-----0--|-----0-----0-----0--|-----0--0--0--1--0--|
C|--4-----------------|--4-----------------|--------------0-----|--2-----------------|
G|-----1-----1-----1--|-----1-----1-----1--|-----2-----2-----2--|-----2-----2-----2--|

A|-----------------|--0---------5----|--0---------3----|--5----5----3----|
E|------------0----|--0----0---------|--1----0---------|--3--------------|
C|-----------------|-----------------|-----------------|-----------------|
G|-----------------|--2--------------|--2--------------|--0--------------|

A|--2----3----2----|--3----3----2----|--5----3----2----|--2--------------|
E|--0--------------|--1--------------|--1--------------|--0--------------|
C|--7--------------|--5--------------|--5--------------|--4--------------|
G|--0--------------|--2--------------|--2--------------|--1----1----2----|

A|--2-------------|--0--------------|--0--------------|-----------------|
E|-----------0----|--5----5----4----|--3----1----0----|--3----3----2----|
C|----------------|-----------------|-----------------|-----------------|
G|----------------|-----------------|-----------------|-----------------|

A|------------5----|-----------------|--5----3----5----|------------6----|
E|--1----0---------|--1----1----0----|-----------------|--0----0---------|
C|--7--------------|-----------------|--5--------------|-----------------|
G|-----------------|-----------------|-----------------|-----------------|

A|--5----3----2----|--0----3----3----|--0----5----3----|--2----2----2----|
E|-----------------|-----------------|-----------------|--3--------------|
C|--4--------------|-----------------|-----------------|-----------------|
G|-----------------|--5--------------|--5--------------|-----------------|

A|--2--------------|-------2----3----|--5----3----5----|--2------------|
E|--3--------------|-----------------|-----------------|--0------------|
C|-----------------|--5--------------|--5--------------|---------------|
G|-------2----0----|--2--------------|-----------------|--1------------|

A|----------2----|-----------2----|------3---2----|--------------|
E|--0-0---0---0--|--0-0----0---0--|----0---0---0--|----0----0-1--|
C|---------------|----------------|---------------|--------------|
G|------1--------|------1---------|--2------------|--2---0-------|

A|----------2----|-----------2----|------3---2----|--------------|
E|--0-0---0---0--|--0-0----0---0--|----0---0---0--|----0----0-1-0|
C|---------------|----------------|---------------|--------------|
G|------1--------|------1---------|--2------------|--2---0-------|

A|----------2----|-----------2----|------3---2----|--------------|
E|--0-0---0---0--|--0-0----0---0--|----0---0---0--|----0----0-1-0|
C|---------------|----------------|---------------|--------------|
G|------1--------|------1---------|--2------------|--2---0-------|

A|----------2----|-----------2----|------2---3---|--5---3----5---|
E|--0-0---0---0--|--0-0----0---0--|----0---0---0-|----0----0---0-|
C|------3--------|----------------|--------------|---------------|
G|---------------|------1---------|--2-----------|---------------|

A|-----2-----2--2--2--|-----2-----2--2--2--|--0--3-----3--2--3--|
E|-----0--4--0-----0--|-----0--4--0-----0--|-----0-----0-----0--|
C|--4-----------------|--4-----------------|--------0-----------|
G|-----1-----1-----1--|-----1-----1-----1--|-----2-----2-----2--|

A|--0--3-----2-----2--|
E|-----0--3--0-----0--|
C|--------------5-----|
G|-----2-----2-----2--|

A|-----2-----2--2--2--|-----2-----2--2--2--|--0--3-----3--2--3--|--0--3-----3-----3--|
E|-----0--4--0-----0--|-----0--4--0-----0--|-----0-----0-----0--|-----0--3--0-----0--|
C|--4-----------------|--4-----------------|--------0-----------|--------------5-----|
G|-----1-----1-----1--|-----1-----1-----1--|-----2-----2-----2--|-----2-----2-----2--|

A|-----2-----2--2--2--|-----2-----2--2--2--|--0--3--2--3-----3--|-----3-----2-----2--|
E|-----0--4--0-----0--|-----0--4--0-----0--|-----0-----0-----0--|-----0--0--0--1--0--|
C|--4-----------------|--4-----------------|--------------0-----|--2-----------------|
G|-----1-----1-----1--|-----1-----1-----1--|-----2-----2-----2--|-----2-----2-----2--|
P P P P P P P P P P P P
A|------------------------|------------------------|-0---------------------|-----------------------|
E|----0-0---4-0-0-----0-0-|----0-0---4-0-0-----0-0-|-5-0-0-----0-0-----0-0-|-5-0-0---3-0-0---1-0-0-|
C|-4----------------------|-4----------------------|-----------------------|-----------------------|
G|-9----------------4-----|-9----------------4-----|---------5-------4-----|-----------------------|
P P P P P P P P P P P P
A|------------------------|------------------------|-0---------------------|-----------------------|
E|----0-0---4-0-0-----0-0-|----0-0---4-0-0-----0-0-|-5-0-0-----0-0-----0-0-|-5-0-0---3-0-0---1-0-0-|
C|-4----------------------|-4----------------------|-----------------------|-----------------------|
G|-9----------------4-----|-9----------------4-----|---------5-------4-----|-----------------------|
P P P P P P P P P P P P
A|------------------------|------------------------|-0---------------------|-------------------------|
E|----0-0---4-0-0-----0-0-|----0-0---4-0-0-----0-0-|-5-0-0-----0-0-----0-0-|----0-0-----0-0-----0-0-|
C|-4----------------------|-4----------------------|-----------------------|------------------------|
G|-9----------------4-----|-9----------------4-----|---------4-------5-----|-7-------9-------10------|

A|-----2-----2--2--2--|-----2-----2--2--2--|--0--3-----3--2--3--|
E|-----0--4--0-----0--|-----0--4--0-----0--|-----0-----0-----0--|
C|--4-----------------|--4-----------------|--------0-----------|
G|-----1-----1-----1--|-----1-----1-----1--|-----2-----2-----2--|

A|--0--3-----2-----2--|-----2-----2--2--2--|-----2-----2--2--2--|
E|-----0--3--0-----0--|-----0--4--0-----0--|-----0--4--0-----0--|
C|--------------5-----|--4-----------------|--4-----------------|
G|-----2-----2-----2--|-----1-----1-----1--|-----1-----1-----1--|

A|--0--3-----3--2--3--|--0--3-----3-----3--|
E|-----0-----0-----0--|-----0--3--0-----0--|
C|--------0-----------|--------------5-----|
G|-----2-----2-----2--|-----2-----2-----2--|

A|-----2-----2--2--2--|-----2-----2--2--2--|--0--3--2--3-----3--|-----3-----2-----2--|
E|-----0--4--0-----0--|-----0--4--0-----0--|-----0-----0-----0--|-----0--0--0--1--0--|
C|--4-----------------|--4-----------------|--------------0-----|--2-----------------|
G|-----1-----1-----1--|-----1-----1-----1--|-----2-----2-----2--|-----2-----2-----2--|
P P P P P P P P P P P P
A|------------------------|------------------------|-0---------------------|-----------------------|
E|----0-0---4-0-0-----0-0-|----0-0---4-0-0-----0-0-|-5-0-0-----0-0-----0-0-|-5-0-0---3-0-0---1-0-0-|
C|-4----------------------|-4----------------------|-----------------------|-----------------------|
G|-9----------------4-----|-9----------------4-----|---------5-------4-----|-----------------------|
P P P P P P P P P P P P
A|------------------------|------------------------|-0---------------------|-----------------------|
E|----0-0---4-0-0-----0-0-|----0-0---4-0-0-----0-0-|-5-0-0-----0-0-----0-0-|-5-0-0---3-0-0---1-0-0-|
C|-4----------------------|-4----------------------|-----------------------|-----------------------|
G|-9----------------4-----|-9----------------4-----|---------5-------4-----|-----------------------|
P P P P P P P P P P P P
A|------------------------|------------------------|-0---------------------|-------------------------|
E|----0-0---4-0-0-----0-0-|----0-0---4-0-0-----0-0-|-5-0-0-----0-0-----0-0-|----0-0-----0-0-----0-0-|
C|-4----------------------|-4----------------------|-----------------------|------------------------|
G|-9----------------4-----|-9----------------4-----|---------4-------5-----|-7-------9-------10------|

A|-----2-----2--2--2--|-----2-----2--2--2--|--0--3-----3--2--3--|
E|-----0--4--0-----0--|-----0--4--0-----0--|-----0-----0-----0--|
C|--4-----------------|--4-----------------|--------0-----------|
G|-----1-----1-----1--|-----1-----1-----1--|-----2-----2-----2--|

A|--0--3-----2-----2--|-----2-----2--2--2--|-----2-----2--2--2--|
E|-----0--3--0-----0--|-----0--4--0-----0--|-----0--4--0-----0--|
C|--------------5-----|--4-----------------|--4-----------------|
G|-----2-----2-----2--|-----1-----1-----1--|-----1-----1-----1--|

A|--0--3-----3--2--3--|--0--3-----3-----3--|
E|-----0-----0-----0--|-----0--3--0-----0--|
C|--------0-----------|--------------5-----|
G|-----2-----2-----2--|-----2-----2-----2--|

A| -----2-----2--2--2--|-----2-----2--2--2--|--0--3--2--3-----3--|-----3-----2-----2--|
E| -----0--4--0-----0--|-----0--4--0-----0--|-----0-----0-----0--|-----0--0--0--1--0--|
C| --4-----------------|--4-----------------|--------------0-----|--2-----------------|
G| -----1-----1-----1--|-----1-----1-----1--|-----2-----2-----2--|-----2-----2-----2--|

A|-2------------------|--------------------|------------------2-|-2---------2--------|
E|-0------------------|-1------------------|-3--------1-------0-|-0---------0--------|
C|--------------------|-0------------------|-2--------0---------|--------------------|
G|-1------------------|-2------------------|-4--------2-------1-|-2---------1--------|

 

Tab comments (0)
No comment yet :(
Need help, a tip to share, or simply want to talk about this song? Start the discussion!

You must be logged in to join the discussion
or Register

 

About this song

No information about this song.