Unforgiven 1 Uke tab by Metallica

Ukulele Tab without chords.

Add tab to your SongBook
Tablature / ChordsFont size: A- A A+

Don't know how to read a tab or a chord ? Check out these uke lessons:

Detailed guide to strumming and picking
How to read uke tabs
Reading chord diagrams

|--0--|-----|--2--|--0--|-----|--2--|--2--|--2--|
|--0--|--3--|-----|--0--|--0--|--3--|--0--|--0--|
|-----|--0--|--4--|-----|--0--|--2--|-----|-----|
|-----|-----|-----|--2--|--0--|--0--|--0--|--1--|

||--0-------2-------2-------2-------3-------||
||------0-------0-------0-------0-------0---||4x
||.----------------------------------------.||
||.-4-2-------2-------2-------2-------2----.||

|--0-------2-------2-------3-------3-------|
|------0-------0-------0-------0-------0---|
|------------------------------------------|
|--4-2-------2-------2-------2-------2-----|
H ~~~
|------------------------------------------|
|------------------------------------------|
|------------------------------------------|
|-------------------2--4--4-5---5--4--2----|

|--0-------2-------3-------3-------3-------|
|------0-------0-------0-------0-------0---|
|------------------------------------------|
|--4-2-------2-------2-------2-------2-----|
H ~~~
|------------------------------------------|
|------------------------------------------|
|------------------------------------------|
|--------------2--4--4-5----------5--2-----|

|--0-------2-------2-------3-------3-------|
|------0-------0-------0-------0-------0---|
|------------------------------------------|
|--4-2-------2-------2-------2-------2-----|
H ~~~~
|------------------------------------------|
|------------------------------------------|
|------------------------------------------|
|----------2--4--4-5---------5--4--2-------|

|--0-------2-------3-------3-------3-------|
|------0-------0-------0-------0-------0---|
|------------------------------------------|
|--4-2-------2-------2-------2-------2-----|
~~~~~
|------------------------------------------|
|------------------------------------------|
|------------------------------------------|
|-------------2--4--5----------5--2--------|
H ~~
|--0-----2--3-------3-----3--|-------------------------------|
|----0-----------0-----0-----|--3-------3---0--0-0-----------|
|--------------0-------------|-----2-------------------------|
|------2---------------------|-------0----0--------2-2-4-2---|
H H H ~~
|----------------------------|-------------------------------|
|----------------------------|--------3----0-----------------|
|----------------------------|-------------------------------|
|---------2--4--4-5--4-5--5--|--5--4-----4-----2--2-4----2---|
H
|-----------2--3----------3--|--3--5--2-----5----------------|
|--5---0------------0--0---0-|-----------3-------------------|
|-----------------0----------|-------------------------------|
|---------2------------------|----------------1--1--4--1-2-4-|
H s ~~ S S s
|------------------5-7--7----|--7--5-------------------------|
|----------------------------|-------------------------------|
|----------------------------|-------------------------------|
|------2--4---4-5------------|--------4-----4--1---4--1--2-4-|

|--0------2------2-----3-----|--0-----2-----2-----2----3-----|
|-------0-----0------0-----0-|------0-----0-----0-----0----0-|
|----------------------------|-------------------------------|
|-----2-----2------2-----2---|--4-2-----2-----2-----2----2---|
~~~~~~~~~~~~~~~~~~~~~~~~
|----------------------------|-------------------------------|
|----------------------------|-------------------------------|
|----------------------------|-------------------------------|
|--2-------------------------|-------------------------------|
||---0---0--0--0h-0--10---|---5---5---5---5---0---0--|
||--------------------0--|--------------------------|
||.---------11--11---------|--------------------------|
||.-7---5--------5-------|--12---12---11---11---5---5---|
H
||-----------------------|--------------------------|
||-----------------3-----|---3--3--2--2-------------|
||.---2------------------|--------------------2-----|
||.------5--4--4-5-------|--------------5--5--------|
H ~~~
|---------------------------|--------------------|-----0-0-----0-0-|
|---------------3--------3--|--3--2--2-----------|-----------------|
|--2------------------------|--------------------|---2-------2-----|
|-----5--4--4-5-------------|------------5-------|-5-------4-------|
|---5-0-0---5-0-0--|--3---5--3--0--5------|---5-0-0---5-0-0---5-0-0-|
|------------------|---------------3------|-------------------------|
|------------------|--7-------------------|-------------------------|
|-2-------0--------|----------------------|-5-------4-------2-------|
|----5-0-0------3--------5--3--0---5-----|--2---|
|----------------------------------3-----|--0---|
|---------------7------------------------|------|
|--0-------------------------------------|------|
~ S
|------------------------------|--------------------------|
|------------------------------|--------3----0------------|
|------------------------------|--------------------------|
|--2--4--5---5--------------5--|--5--4----4---------------|
H ~~ ~~
|---------|-----------------7---7-----|
|---------|---------------------------|
|---------|---------------------------|
|-2--2-4--|-2-----2--4--5-------------|
~~ S H ~~ ~~~~
|-7-5----------------|---------------------------|
|--------------------|---------------------------|
|--------------------|---------------------------|
|----4---4---4-1-2-4-|-2----2-----4-----5--------|
~~ S H
|-----|--------------------------------------------------|
|-----|-----3------0-------------------------------------|
|-----|--------------------------------------------------|
|--5--|-5-4-----4---------------------2-------2-4--------|
~ ~ ~~ S S H ~~
|-------------7--7----|-5--------------------------- -----
|---------------------|----------------------------- -----
|---------------------|----------------------------- -----
|-2--2--4-5-----------|---4----4---1---4--1--2-4---- -2---

|--------------------||--0-----2-----2-----2------3---------|
|--------------------||------0-----0-----0-----0------0-----|
|--------------------||-------------------------------------|
|--------------------||--4-2-----2-----2-----2------2-------|
H P H ~~~
|--------------------------------------------|
|--5---------------------5------3--3-5-------|
|----------2---------------------------------|
|----4--5------5--4-5-4-------4--------------|
H ~~~~~
|--2--3--5--7--5--3-----3-5------------------|
|--0--0--0--0--0--0--------------------------|
|--------------------------------------------|
|--------------------------------------------|
S S H ~~~~
|---------------5-7--5-------5---------------|
|--3-5--3---2--------------------3-----------|
|--2--4-2---2--------------------------------|
|----------------------5--4----4-------------|
|-------3/5--6--7--10-----10---10-12-------------|
|--3--5------------------------------------------|
|------------------------------------------------|
|-----------------------5------------------------|
H P ~~ ~ ~~~
|--------------------------------------------|
|--3--2-3-2----2-3--5----3------3--3----3----|
|-----------4--------------------------------|
|----------------------4------4------7-------|
S ~ S ~ S ~~~~
|-----------------------------------------------|
|--3-5-----5---5-----------------------------|
|--------------------------------------------|
|-------9---------4--11--4---4--6--12-6-14------|

|-----------0--0------------0--|
|--5--5--5--0---------------0--|
|--2--2--2---------------------|
|----------------4b5r4b5r4-----|
~~~~ S
|--------------------------------------------------|
|--2-3--2-3--3--------5-----5--3------------5-3-5--|
|--2-4--2-4----4-------b---r-----4--2-0-2-0--------|
|---b----b--------------4--------------------------|
S ~~ S H
|---b-----------|----------------------------------|
|--------5------|------------------2---2--3--2-3---|
|--0-2----------|-2---2--2-4---2-4---4-------------|
|----------5----|----5-----------------------------|
~~~ ~~~~
|-------------------44------44------44-----------|
|--5-----5-----------------------------------|
|--------------------------------------------|
|-----7---------12------12------12-------12------|

|------44----------------------------------------------|
|--------------------b23----b23--r------b23r----|
|-----------------------------------------------|
|--12-------12---9---17------17-------17---17-----17---|
P ~~~ S S
|---------------------------------44----------------|
|-------------------------------------------|
|--------------------------------------4----|
|--14---14---17--14--12--14---12---------12---------|
P S S ~~~
|------------------------------------------------------|
|-------------5------3--2---2--------------------------|
|-------------------------4---4--2----2----------------|
|--7--6--4--6-----4----------------5----5-4--5-4-2-----|
S
|------------------------------------------------------|
|---5-------------5----------5----------5----------5---|
|------------------------------------------------------|
|--------5--9--5-------9--5-------9--5-------9--5------|
~~~~
|---------------------------------------|-----------------------|
|--------5----------5----------5--------|-----------------------|
|---------------------------------------|-----------------------|
|--9--5-------9--5-------9--5-----------|--7-b21--7-b21r7---5---|
~~~
|------44------44------------------------------------------------44---------|
|---------------------------------------------------------------|
|---------------------------------------------------------------|
|--12------12---------14---16---17--16--14--16--14--16--14---12-------------|
P P
|------------------------------------------------------------------|
|---------------------------------------------------------------|
|---------------------------------------------------------------|
|--14--12--9--7-b21--12--9--7---7-b21-r7--5---7-b21-r7--5----------|
~~~~ H P ~~~ ~~~~
|-----------------------------------------------|--------------------|
|-------------------------------------------|-------------------|
|-------------------------------------------|-------------------|
|--7-b21--7-b21-r7---5--12--------10--12--10----|--9------10--9------|
s s s ~~
|---------------|------------------5--5-7---7--5--5-7----5------|
|---------------|------------------------------3--3-5-----------|
|---------------|-----------------------------------------------|
|---------------|--2--2-4--2--5----4--4-5---5------------4------|
~~ s ~~ ~~~ S s
||---------------------------|-------------------------------|
||---------------------------|-------3-----------------------|
||.--------------------------|-------------------------------|
||.-2-----2--4-4-5-----5--5--|--5--4-------4--1--1---2--2-4--|
~~ s s ~~~ S s
|-----------------5-7----7--|--7--5---------6--3--3--4--4-6--|
|---------------------------|--------------------------------|
|---------------------------|--------------------------------|
|--2-----2--4-4-5-----------|-------4------------------------|
~~ s ~~~
|---------------------------------------|
|---------------------------------------|
|---------------------------------------|
|--2----2--2--4-4-5--------5-----5------|
~~~ S s ~~~ s s
|----------------------------|----------------5-7--7--|
|------3---------------------|------------------------|
|----------------------------|------------------------|
|--5-4------4--1--1--2-2-4---|--2----2--4-4-5---------|
~~~ S s
|--7-5--------------------------||
|-------------------------------||
|------------------------------.||
|------4-----4---1--1--2--2-4--.||

 

Tab comments (0)
No comment yet :(
Need help, a tip to share, or simply want to talk about this song? Start the discussion!

You must be logged in to join the discussion
or Register

 

About this song

No information about this song.