Nothing Else Matter (Solo) Uke tab by Metallica

Ukulele Tab without chords.

Add tab to your SongBook
Tablature / ChordsFont size: A- A A+

Don't know how to read a tab or a chord ? Check out these uke lessons:

Detailed guide to strumming and picking
How to read uke tabs
Reading chord diagrams

A:--------------------------------------------------------|-
E:-------------------5-----3----5--3-----3----------------|-
C:---9---------9----------------------6-----6-----6-------|-
g:---7-b4------7-b4-b--------------------------9-----7--9-|-
H P
A:--------------------------------------------------------|-
E:-3--5--3---5--------5--------------6--3--6--5--3--5--3--|-
C:--------------------------------------------------------|-
g:-------------b4--9----b4--9--7--4-----------------------|-

A:--------------------------------------------------------|-
E:-------------5--3---------------------------------------|-
C:-9-----9------------------------------------------------|-
g:-7-b4--7-b4-b-------------------------------------------|-
S S H P
A:--------------------------------------------------------------------|-
E:--------------------------------------------------------|-
C:--------------------------------------------------------|-
g:---12--11--4--12--11---12--14--12---11--12--11--4--12--11--4--------|-
P
A:--------------------------------------------------------|-
E:--3--5--3---------5--3-----3--5-------------------------|-
C:------------9-------------------------------------------|-
g:------------7-b4-b------9-------b4--4--9--4--7----------|-
P S
A:----------------------------------------------7-----7---|-
E:-------------------------------------------2-----2------|-
C:--------------------------------------------------------|-
g:--7--9--7--4---7--9---------4---7---4-------------------|-

 

Tab comments (0)
No comment yet :(
Need help, a tip to share, or simply want to talk about this song? Start the discussion!

You must be logged in to join the discussion
or Register

 

About this song

Nothing Else Matters is 8th track off Metallica's famous "Metallica" album (referred often to as "the Black Album" due to the cover art). The album has sold over 25 million copies world wide. It was Metallica's first, more popular sounding album. The track was composed and written by James Hetfield to his girlfriend whom he missed during long touring sessions. The track became a massive hit instantly after the album was published. Producer for this song is Bob Rock, and Lars Ulrich is a co-writer. It's also the only Metallica song that Hetfield plays it's guitar solo instead of Kirk Hammett.