This Dream Is Over (Riff) Uke tab by Mando Diao

Ukulele Tab without chords.

Add tab to your SongBook
Tablature / ChordsFont size: A- A A+

Don't know how to read a tab or a chord ? Check out these uke lessons:

Detailed guide to strumming and picking
How to read uke tabs
Reading chord diagrams

|--3-3-6-7--3-3-6-7--3-6-7--1---1----|
|-----------------------------3------|
|------------------------------------|
|------------------------------------|
|--3-3-6-7--3-3-6-7--3-6-7--1---1----|
|-----------------------------3------|
|------------------------------------|
|------------------------------------|
|--3-3-6-7--3-3-6-7--3-6-7--1---1----|
|-----------------------------3------|
|------------------------------------|
|------------------------------------|
|--3-3-6-7--3-3-6-7--3-6-7--1---1----|
|-----------------------------3------|
|------------------------------------|
|------------------------------------|

 

Tab comments (0)
No comment yet :(
Need help, a tip to share, or simply want to talk about this song? Start the discussion!

You must be logged in to join the discussion
or Register

 

About this song

No information about this song.