No Necesitamos Banderas Uke tab by Los Prisioneros

6 Chords used in the song :

Add tab to your SongBook

View these chords for the Baritone

Transpose chords:
Tablature / ChordsFont size: A- A A+

Don't know how to read a tab or a chord ? Check out these uke lessons:

Detailed guide to strumming and picking
How to read uke tabs
Reading chord diagrams


A|----------------------------------|
E|--------------------------5-------|
C|--------------------4-4-4---4-----|
G|-2-2-2-2-2-2--5-5-5---------------|


|--------------------------5-------|
E|--------------------5-5-5---5-----|
C|-2-2-2-2-2-2--5-5-5---------------|
G|----------------------------------|

repeat 2x

Am chordAm Dm chordDm
Con la autoridad que nos da el buen juicio
Am chordAm Dm chordDm
y en pleno uso de nuestra razón
Am chordAm Dm chordDm
declaramos romper de forma oficial
Am chordAm
los lazos que nos pudieron atar alguna vez
G chordG C chordC
a una sola institución o forma de representación
Dm chordDm E chordE
que nos declare parte de su total


Am chordAm Dm chordDm
con toda honestidad y con la mente limpia
Am chordAm Dm chordDm
renegamos de cualquier color
Am chordAm Dm chordDm
ya todas las divisas nos dan indiferencias
Am chordAm Dm chordDm
renegamos de cualquier patrón
G chordG C chordC
se llame religión se llame nacionalidad
Dm chordDm E chordE
no queremos representatividad

Coro:
Am chordAm - C chordC - Em chordEm

Dm chordDm
no necesitamos banderas
Dm chordDm Am chordAm C chordC Em chordEm
no reconocemos fronteras
Dm chordDm Am chordAm C chordC Em chordEm
no aceptaremos filiaciones
Dm chordDm Am chordAm C chordC Em chordEm
no escucharemos mas sermones

Am chordAm Dm chordDm
Es fácil vegetar dejar que otros hablen
Am chordAm Dm chordDm
Y decir ellos saben más que yo
Am chordAm Dm chordDm
Ponerse una insignia marchar detrás de un líder
Am chordAm
Y dejar que nos esgriman como razón
G chordG C chordC
No vamos a esperar la idea nunca nos gustó
Dm chordDm E chordE
Ellos no están haciendo lo que al comienzo se pactó


Coro:

Dm chordDm
no necesitamos banderas
Dm chordDm Am chordAm C chordC Em chordEm
no reconocemos fronteras
Dm chordDm Am chordAm C chordC Em chordEm
no aceptaremos filiaciones
Dm chordDm Am chordAm C chordC Em chordEm
no escucharemos mas sermones

Solo

A--------------------------------------------------
E------5---5----5---------------------------------
C---4----4----4-----------------------------------
G----5----5----5---5---7---9---7---9--10--9--7-----
H
A---------------------------------------------------
E-----5----5----5----------------------------------
C---4----4----4------------------------------------
G----5----5----5----5--7--9--7--9--10--9--7--5--4---

A------------------------------------------------------
E-----------------------------------------------------
C-----------------------------------------------------
G---5--4--4--5--4--9--7--9--9--10--9--7--5--4---7--9---

A--------------------------------------------------------------
E--------------------------------------------------------
C--------------------------------------------------------
G---10--9--7---10--9--7---10--9--7---10--9--7---9--10--12------
H
A-------------------------------------
E---4----------5--6--5----------------
C-------------------------------------
G-----^9--4-9-----------9--4--9-------

Coro
Dm chordDm
no necesitamos banderas
Dm chordDm Am chordAm C chordC Em chordEm
no reconocemos fronteras
Dm chordDm Am chordAm C chordC Em chordEm
no aceptaremos filiaciones
Dm chordDm Am chordAm C chordC Em chordEm
no escucharemos mas sermones

 

Tab comments (0)
No comment yet :(
Need help, a tip to share, or simply want to talk about this song? Start the discussion!

You must be logged in to join the discussion
or Register

 

About this song

No information about this song.