Traicionero Uke tab by La Beriso

4 Chords used in the song :

Add tab to your SongBook

View these chords for the Baritone

Transpose chords:
Tablature / ChordsFont size: A- A A+

Don't know how to read a tab or a chord ? Check out these uke lessons:

How to read uke tabs
Reading chord diagrams


G chordG D chordD Em chordEm
Decirme como le explico a mi corazón lo perdido
C chordC G chordG
Se que la culpa fue mía fui yo quien abrió esta herida
D chordD Em chordEm
No merezco lo que tengo voy perdiendo por ser terco
C chordC G chordG
Veo tu angustia llorando partiéndose en mil pedazos
D chordD
En mil pedazos

D chordD G chordG C chordC G chordG
Cuantas noches de gira días llenos de melancolía
C chordC G chordG C chordC G chordG
Mi casa sin vos se ve tan vacía sé que tu amor fue tan sincero
D chordD G chordG
Perdon el mio fue tan traicionero

C chordC G chordG
E|-----------------------------------------|
B|----999-888-666-444----------------------|
G|--------------------1-1h3-5--------------|
D|-----------------------------------------|
A|-----------------------------------------|
E|-----------------------------------------|

C chordC Em chordEm D chordD C chordC G chordG
E|-------------------------------------------------------------------------|
B|----999-888-666-444------------------------------------------------------|
G|---------------------1s5------5-6-88-653---3-5-66--5--1------------------|
D|----------------------------------------------------------1h3--11--------|
A|---------------------------------------------------------------------3---|
E|----------------------------------------------------------------------4--|

G chordG D chordD Em chordEm
Cuantas noches de victorias que al otro dia eran derrotas
C chordC G chordG
Me fui cayendo en el barro no tengo ni pal fracaso
D chordD Em chordEm
Voy juntando pedazos no me queda ni tu pasado
C chordC G chordG
Se que la culpa fue mía fui yo quien abrió esta herida
D chordD
Quien abrió esta herida

D chordD G chordG C chordC G chordG
Cuantas noches de gira días llenos de melancolía
C chordC G chordG C chordC G chordG
Mi casa sin vos se ve tan vacía sé que tu amor fue tan sincero
D chordD G chordG
Perdon el mio fue tan traicionero

[Solo] C chordC G chordG C chordC Em chordEm D chordD C chordC G chordG D chordD

D chordD G chordG C chordC G chordG
Cuantas noches de gira días llenos de melancolía
C chordC G chordG C chordC G chordG
Mi casa sin vos se ve tan vacía sé que tu amor fue tan sincero
D chordD G chordG
Perdon el mio fue tan traicionero
D chordD G chordG
Perdon el mio fue tan traicionero
D chordD G chordG
Perdon el mio fue tan traicionero

 

Tab comments (0)
No comment yet :(
Need help, a tip to share, or simply want to talk about this song? Start the discussion!

You must be logged in to join the discussion
or Register

 

About this song

No information about this song.