August 12 Uke tab by Khruangbin

Ukulele Tab without chords.

Add tab to your SongBook
Tablature / ChordsFont size: A- A A+

Don't know how to read a tab or a chord ? Check out these uke lessons:

Detailed guide to strumming and picking
How to read uke tabs
Reading chord diagrams

A|--------------------------------------------|-------------------------------------------|
E|--------------------------------------------|------5------------5------------5----------|
C|--------------------------------------------|----------6------------6------------6---6--|
G|--9---7---4----9---7---4-----9---7---4---4--|--4------------4------------4--------------|
S
A|----------------------------------|---------------------------------------|
E|----------------------------------|----------------5--------------5-------|
C|--4--2-----4--2-------4--2--------|--2----2--4-6-------6------6-----------|
G|--------4--------4----------4--4--|-----------------------------------4---|

A|--------------------------------------------|-------------------------------------------|
E|--------------------------------------------|------5------------5------------5----------|
C|--------------------------------------------|----------6------------6------------6---6--|
G|--9---7---4----9---7---4-----9---7---4---4--|--4------------4------------4--------------|

A|----------------------------------|----------------------------|
E|----------------------------------|------------------5--5---3--|
C|--4--2-----4--2-------4--2--------|--2-------------------------|
G|--------4--------4----------4--4--|------6--6--6--4------------|
S H P P P S
A|---------------------------------------------|------------------------------------------------------------|
E|-----------5---------5--5--------------------|-----------------------------------------5---5--5--5--------|
C|-6--6--6--------------------4--2-4-2---------|------------------------------------------------------------|
G|--------------4-6---------------------4--4---|--7---7---7--6----6---6---6--4---4--4--4---------------5----|
S H P S P S P
A|-------------------------------------------|---------------------------------------------|
E|-----------5---------5--5------------------|------------5--------------------5-----------|
C|-6--6--6-------------------4--2-4-2--------|--2--4-6--------6--4---2--4-6--------6--4----|
G|--------------4-6--------------------4--4--|---------------------------------------------|
S S H P S H S P S S
A|------------------------------------|-------------------------------------------------------|
E|--------------5-------------5---5---|--------------------5--5-------------5-----------------|
C|--2--4-6----------------------------|--6---4-6--4-2--------------2--4-6-------6--4-2--4-6---|
G|------------------4--6--------------|----------------4--------4-----------------------------|

A|--------------------------------------------|-------------------------------------------|
E|--------------------------------------------|------5------------5------------5----------|
C|--------------------------------------------|----------6------------6------------6---6--|
G|--9---7---4----9---7---4-----9---7---4---4--|--4------------4------------4--------------|
S H S
A|--------------------------------------------|------------------------------------------|
E|--------------5--------------5--------------|---5--------------------------------------|
C|---4--2-------------2--4-6-------4----4--4--|--------2--4-6----6---4--6-----6---4--6---|
G|---------4-------4--------------------------|-----4------------------------------------|
H H H P H S S H
A|-------------------------------------|----------------------------------------|
E|-------------------5------5----------|----------------------------------------|
C|--4-6----4-6---6--------------6---4--|---2--4-2---2-4--4--4-6---4-2--2-4--4---|
G|----------------------4--------------|----------------------------------------|
P H S S P P H S
A|-----------------------------------------------------------|
E|---------------------------------5--5----5--5--------------|
C|---2--4-2--2-4--4---4-6---4-2--------------------2--4-6----|
G|-------------------------------4-------4------4------------|
P P H H H P H
A|-------------------------------------|-------------------------------------------------------|
E|-------------------------------------|-----5------5--------------------------5-------5-------|
C|--6--4--6----6--4--6----4--6----4-6--|-6--------------6---4----------------------6-----------|
G|-------------------------------------|--------4---------------7--9---7----4-------------4----|
S S S S
A|--------------------------------------|----------------------------------------------------|
E|---5------------------5---------------|----------------------------------------5--5--5--5--|
C|-----------2---4-6---------4---4------|----------------------------------------------------|
G|-------4------------------------------|---7---7---7--6---6---6---6--4--4--4--4-------------|
P P H H P P H H H P P H
A|----------------------------------------------|------------------------------------------------------------|
E|---5---4---4---4--5--4--------------------4---|--4---4-5--4-----------------------5-----5------------------|
C|---4---4---4---4--------6--4--------4--6------|--------------6--4--------4--4-6--------------6--4---4-6----|
G|------------------------------4-6-------------|--------------------4-6---------------4--------------------4|
P P H H P P H H H P P H
A|----------------------------------------------|------------------------------------------------------------|
E|---5---4---4---4--5--4--------------------4---|--4---4-5--4-----------------------5-----5------------------|
C|---4---4---4---4--------6--4--------4--6------|--------------6--4--------4--4-6--------------6--4---4-6----|
G|------------------------------4-6-------------|--------------------4-6---------------4--------------------4|
S P S S P S P S
A|---------------------------------------------|----------------------------------------------------|
E|-----------------5-----4---4---4---4---4---4-|----------------5----5--------5---5---5---5---2---2-|
C|---------4-------------4---4---4---4---4---4-|--------4---------------------4---4---4---4---2---2-|
G|---4-6------6--4----4------------------------|--4-6------6--4----4----4-6-------------------------|
S P S S P S P S H P S
A|---------------------------------------------|-----------------------------------------------------|
E|-----------------5-----4---4---4---4---4---4-|----------------5----5--------5-----5--------5-----5-|
C|---------4-------------4---4---4---4---4---4-|--------4---------------------4-6---4----------------|
G|---4-6------6--4----4------------------------|--4-6------6--4----4----4-6-------------6--4----4----|
H S P S H S P S
A|---------------------------------|----------------------------------|
E|--------5----------------5-------|--------5----------------5--------|
C|---4-6-----------4---------------|---4-6-----------4----------------|
G|-----------4-6------6--4----4----|-----------4-6------6--4----4-----|
H S P S P S H P S S
A|---------------------------------------|------------------------------------|
E|--------5----------------5----5--------|------6-----6-------5------------5--|
C|---4-6-----------4---------------------|------4-6---4-----------------------|
G|-----------4-6------6--4----4----4-6---|--6------------6--4----4---4-6------|

 

Tab comments (0)
No comment yet :(
Need help, a tip to share, or simply want to talk about this song? Start the discussion!

You must be logged in to join the discussion
or Register

 

About this song

No information about this song.