Tik Tok (Intro) Uke tab by Kesha

Ukulele Tab without chords.

Add tab to your SongBook
Tablature / ChordsFont size: A- A A+

Don't know how to read a tab or a chord ? Check out these uke lessons:

Detailed guide to strumming and picking
How to read uke tabs
Reading chord diagrams

A|---------------------|---0-----------------|
E|----------0-0-1--1-1-|----------0-0-1--1-1-|
C|-2-2-2--2------------|-2---2--2------------|
G|---------------------|---------------------|

A|---------------------|---0-----------------|
E|----------0-0-1--1-1-|---------------------|
C|-2-2-2--2------------|-2---2--2------------|
G|---------------------|---------------------|

 

Tab comments (0)
No comment yet :(
Need help, a tip to share, or simply want to talk about this song? Start the discussion!

You must be logged in to join the discussion
or Register

 

About this song

Officially released on August 7, 2009. (digitally first)"TiK ToK" is a dance track by pop singer Ke$ha. The song has climbed the Billboard charts and was the very first #1 song on the Billboard Hot 100 of the year 2010.Songwriters: Lukasz Gottwald, Benjamin Levin, Kesha Rose SebertPublishers: DYNAMITE COP MUSIC, KASZ MONEY PUBLISHING, MATZA BALL MUSIC, WHERE DA KASZ AT?Read more on Last.fm.