Lucid Dreams Uke tab by Juice WRLD

Ukulele Tab without chords.

8.7/10
PrintAdd tab to your SongBook

Tablature / Chords (

Font size: A- A A+

Artist: 
Year:  2018
Key: unknownTablature (no chords)
INTRO

A------------------------------
E-------------------2---2--2--1
C----1---------1------1-------- x2
G--2---2-----1---1-------------


A-----------------------------------------------------
E----2--------2---0------------1---2---0--------------
C--2---2--------2----0---1-----------------2---1--1--1
G----------2-----------------1------------------------


Chorus


A--------------7-5-------
E--9-9---5-5--------9-9-7
C------------------------ x4
G------------------------


A------------------------------------------------
E---5-5-5-7-5-5-5-5-5-5-7-5-5-5-7-5-5-5-5-5-5-7-5
C------------------------------------------------
G------------------------------------------------

⇢ Not happy with this tab? View 3 other version(s)

Uke tab by , 11 May 2019

Tab comments (3)

Something to say?
Share your strumming patterns, chords or tips to play this tab! ;)
Filter by:
Rujojuvalahi avatar
flag for WF(ISO2) (Mata-utu)
Nice tabs
23 Mar 2020
Comment
MIRO_hero avatar
Great
23 Dec 2019
Comment
Dibbydodo111 avatar
love this
16 Dec 2019
Comment

Top Tabs & Chords by Juice WRLD, don't miss these songs!

About this song: Lucid Dreams

No information about this song.

Did you cover Lucid Dreams on your Ukulele? Share your work!
Submit a cover