Air (from Suprise Symphony) Uke tab by Josef Haydn

Ukulele Tab without chords.

Add tab to your SongBook
Tablature / ChordsFont size: A- A A+

Don't know how to read a tab or a chord ? Check out these uke lessons:

Detailed guide to strumming and picking
How to read uke tabs
Reading chord diagrams

A|-1-1--5-5--8-8--5---6-6--3-3--0-0-------|
E|-----------------------------------1----|
C|----------------------------------------|
G|----------------------------------------|



A|-1-1--5-5--8-8--5--6-3-0----1-5-1-------|
E|-------------------------1--------------|
C|----------------------------------------|
G|----------------------------------------|

 

Tab comments (1)
You must be logged in to join the discussion
or Register

 

CarlaCulunda avatar
flag for DE(ISO2) (Banzin)
It is easier to play 2 halfsteps lower :)

----22-55-2-33-00--------------
------------------22----
---------------------2-
-00---------------------
15 May 2015
About this song

No information about this song.