Slow Dancing In The Dark (Intro) Uke tab by Joji

5 Chords used in the song: D#7, Cm7, Fm7, Gm, G

PrintAdd tab to your SongBook
Tablature / ChordsFont size: A- A A+

Don't know how to read a tab or a chord ? Check out these uke lessons:

Detailed guide to strumming and picking
How to read uke tabs
Reading chord diagrams

D#7 D#7
A|--------1---6---10---13---17---17---|13---10---6---1-------------------|
E|----------------- ---- ---- ---- ---|- ---- ---------------------------|
C|3---------------- ---- ---- ---- ---|- ---- ---------------3---3-------|
G|----0------------ ---- ---- ---- ---|- ---- -----------0-----------0---|

Cm7 Cm7
A|--------3---6---10---13---17---17---|13---10---6---1-------------------|
E|----------------- ---- ---- ---- ---|- ---- ---------------------------|
C|0---------------- ---- ---- ---- ---|- ---- ---------------3---3-------|
G|----0------------ ---- ---- ---- ---|- ---- -----------0-----------0---|

Fm7 Fm7
A|--------3---6---10---10---10---3---|6-------3---6---10---6---3---6---|
E|1---------------- ---- ---- -------|----------------- ---------------|
C|----------------- ---- ---- -------|----------------- ---------------|
G|----1------------ ---- ---- -------|----1------------ ---------------|

Gm Gm G G
A|--------1---5---8---8---5---1---|----2---5---2---5---8-----------|
E|--------------------------------|--------------------------------|
C|--------------------------------|--------------------------------|
G|----0---------------------------|0-------------------------------|

 

Tab comments (0)
No comment yet :(
Need help, a tip to share, or simply want to talk about this song? Start the discussion!

You must be logged in to join the discussion
or Register

 

About this song

On “SLOW DANCING IN THE DARK,” Joji continues the lovelorn narrative from his previous single “Yeah Right” over a dark, ambient instrumental.This time around, he uses the metaphor of slow dancing in the dark to characterize a failing relationship—just like a slow dance where you can’t see your partner’s face, his relationship with this person is intimate but ultimately impersonal.Joji first previewed the song on May 12, 2018 at the Blurry Vision Festival. Read more on Last.fm.