Hentai Uke tab by Joji

4 Chords used in the song: C, Am, F, G

Add tab to your SongBook
Tablature / ChordsFont size: A- A A+

Don't know how to read a tab or a chord ? Check out these uke lessons:

Detailed guide to strumming and picking
How to read uke tabs
Reading chord diagrams

(This is the really fast part before he starts rapping)

[Intro]
A|-1-1-1-1-----------1-4---1---4-4-4-4--3-3-3-3--1-1-1-1-1-1--4-4------------|
E|----------4-4-4-4------4---------------------------------------------------|
C|---------------------------------------------------------------------------|
G|---------------------------------------------------------------------------|
(it slows down a bit and changes key during the verse)

[Verse]
A|---------------------0------0-0-0-0-----------------------0-0--------------|
E|-2-2-2-2--0-0-0-0--2---0-2----------4-4-4-4--2-2-2-2-2-2-------------------|
C|---------------------------------------------------------------------------|
G|---------------------------------------------------------------------------|

[Chorus]
the strumming pattern is just down down, but you mute the strings really fast after the second down strum.

C C Am Am
i need you hentai
F F G G C C Am Am
you always better my life for me
F F G G
For me, For me
C C Am Am
i need you hentai
F F G G C C Am Am
you always better my life for me
F F G G
For me, For me
C C Am Am
without this hentai

F F
I would die
G G C C
in this lonely painful life
Am Am F F
this lonely painful life,
G G
life
C C Am Am
it makes me happy
F F
it makes me cry
G G
makes me laugh

makes me nut

 

Tab comments (2)
You must be logged in to join the discussion
or Register

 

styguu avatar
flag for US(ISO2) (Plantation)
Uhh the lyrics are wrong it goes

I need you hentai you’ve always been in my life for me
15 Mar 2019
chris_nunez avatar
W0W that first part is hard as shit
23 Nov 2018
About this song

No information about this song.