Hedwig's Theme X Uke tab by John Williams

Ukulele Tab without chords.

8.8/10
PrintAdd tab to your SongBook

Tablature / Chords (

Font size: A- A A+

Artist: 
Album:  unknown
Key: unknownTablature (no chords)
A---0-3-2-0-7-5-2--0-3-2----2-------
E-0---------------0-------4----0---0
C--------------------------------0--
G-----------------------------------


A---0-3-2-0-7-10-9-8--5-8--7-6--3-0-
E-0-----------11---9----9-----------
C-------------12---10---10----2-----
G-----------------------------------


A---7--7----8-7-6-----7-6-2---7-----
E-8---8---8-------7-8-------3-------
G-----------------------------------
C-----------------------------------


A---7--7----10-9-8--5-8--7-6--3-0---
E-8---8---8-11---9----9-------------
G-----------12---10---10----2-------
C-----------------------------------

Uke tab by , 05 Nov 2011

Tab comments (0)

No comment yet :(
Need help, a tip to share, or simply want to talk about this song? Start the discussion!

Something to say?
Share your strumming patterns, chords or tips to play this tab! ;)

Top Tabs & Chords by John Williams, don't miss these songs!

About this song: Hedwig's Theme X

No information about this song.

Did you cover Hedwig's Theme X on your Ukulele? Share your work!
Submit a cover