On The Sunny Side Of The Street Uke tab by Jimmy McHugh

Ukulele Tab without chords.

Add tab to your SongBook
Tablature / ChordsFont size: A- A A+

Don't know how to read a tab or a chord ? Check out these uke lessons:

Detailed guide to strumming and picking
How to read uke tabs
Reading chord diagrams

A|---|-3------|77---76-|5---0---|----22--|
E|---|-0----03|-4------|5-8---1-|010-00--|
C|342|0--02---|-4------|5-------|---222--|
G|---|--------|-4------|5-------|----11--|

A|------3-|2-2--0-0|3-0-----|---22---|
E|----0---|--2---4-|1---1--0|-3-11---|
C|0-2-----|--0-----|2-------|2--22342|
G|--------|--2-----|0-------|---00---|


A|---|-3------|77---76-|5---0---|----22--|
E|---|-0----03|-4------|5-8---1-|010-00--|
C|342|0--02---|-4------|5-------|---222--|
G|---|--------|-4------|5-------|----11--|

A|------3-|2-2--0-0|3-0-----|-33---3-|
E|----0---|--2---4-|1---0---|-0------|
C|0-2-----|--0-----|2-----2-|20------|
G|--------|--2-----|0-------|-0------|


A|3-3-----|--1---3-|3-3-----|-0----3-|
E|-------1|0-0-----|1---0-3-|11------|
C|----2---|--0-----|3-------|-0------|
G|3-------|--0-----|2-------|-2------|


A|3-3-----|-------0|25-5----|--------|
E|2---0--3|22------|1--3----|0-3-----|
C|2-------|-0------|2--5--22|-75-----|
G|2-------|-2------|--------|--4-----|


Grab your coat and get your hat
Leave your worries on the doorstep
Life can be so sweet
On the sunny side of the street

Can't you hear the pitter-pat
And that happy tune is your step
Life can be complete
On the sunny side of the street

I used to walk in the shade with my blues on parade
But I'm not afraid... This rover's crossed over

If I never had a cent
I'd be rich as Rockefeller
Gold dust at my feet
On the sunny side of the street


I used to walk in the shade with them blues on parade
Now I'm not afraid... This rover has crossed over

Now if I never made one cent
I'll still be rich as Rockefeller
There will be gold dust at my feet
On the sunny
On the sunny, sunny side of the street

 

Tab comments (0)
No comment yet :(
Need help, a tip to share, or simply want to talk about this song? Start the discussion!

You must be logged in to join the discussion
or Register

 

About this song

No information about this song.