Let Me Be The One Uke tab by Jimmy Bondoc

9 Chords used in the song: A, D, C#m, Bm, E, C#, F#, B, F#m

Add tab to your SongBook

View these chords for the Baritone

Transpose chords:
Chord diagrams:
Pin chords to top while scrolling
Tablature / ChordsFont size: A- A A+

Don't know how to read a tab or a chord ? Check out these uke lessons:

Detailed guide to strumming and picking
How to read uke tabs
Reading chord diagrams

GCEA tuning

A-2100

D-2200

C#m-6400

Bm-4200

E-4402

B-4320

F#-6600

F#m - x654

 

Intro:

 

A -----------7-----7------2----4----4------2-----2h4------2-------2h4-------------------------

E ----5---------4-----4------------------------0--------5-------0--------------------------------

C -------4-- 2------------1----(1)--(1)----------------------------------------------------------

G -------------------------------------------4----------------2-------(2)-------------------------

 

 

A -----------7-----7------2----4----2------------------------------------------------------------

E ----5---------4-----4--------------------5----0--------3---------------------------------------

C -------4-- 2------------1----(1)--(1)-------2s4---2------2---2s4---------------------------

G -------------------------------------------------------------------------------------------

 

A ---0------0--2--2h4--2--0-------0------0--2--2h4--2p0--6--------------------------------

E ---0---------------------------0---0--------------------------------------------------------

C ---1-------------------------------1------------------------------------------------------------

G ---2---2---------------------------2-------------------------------------------------------------

 

 

Verse1:

A A D D

Somebody told me you were leavin’

A A-D D

I didn’t know

A A D D

Somebody told me you’re unhappy

C#m C#m Bm Bm

But it doesn’t show

D D C#m C#m Bm Bm

Somebody told me that you don’t want me no more

Bm Bm-E E

So you’re walkin’ out the door

A A D D

Nobody told me you’ve been cryin’

A A-D D

Every night

A A D D

Nobody told me you’d been dyin’

C#m C#m Bm Bm

But didn’t want to fight

D D C#m C#m Bm Bm

Nobody told me that you fell out of love from me

Bm Bm-E E

So I’m settin’ you free

 

A A - D D

 

[Ref:]

 

D D C#m C#m

Let me be the one to break it up

Bm Bm A A

So you won’t have to make excuses

D D C#m C#m

We don’t need to find a set up where

Bm Bm A A

Someone wins and someone loses

D D C# C#

We just have to say our love was true

F# F# B B

But has now become a lie

Bm Bm A A Bm Bm

So I’m tellin’ you I love you one last time

 

(Intro)

 

And goodbye

 

Verse2: (Do verse chords)

 

Somebody told me you still loved me

Don’t know why

Nobody told me that you only

Needed time to fly

Somebody told me that you want to come back when

Our love is true again

 

[ref then bridge]

A A

...goodbye

 

[Bridge:]

 

D D

Just turn around and walk away

C#m C#m Bm Bm-E E

You don’t have to live like this

C#m C#m F#m F#m

If you love me still then stay

D D C# C#

Don’t keep me waiting for that final kiss

D D C#m C#m

We can work together through this test

D D C#m C#m

Or we can work through it apart

D D C#m C#m

I just need to get this off my chest

Bm Bm E E

That you will always have my heart


GCEA tuning

A-2100

D-2200

C#m-6400

Bm-4200

E-4402

B-4320

F#-6600

F#m - x654

 

Intro:

 

A -----------7-----7------2----4----4------2-----2h4------2-------2h4-------------------------

E ----5---------4-----4------------------------0--------5-------0--------------------------------

C -------4-- 2------------1----(1)--(1)----------------------------------------------------------

G -------------------------------------------4----------------2-------(2)-------------------------

 

 

A -----------7-----7------2----4----2------------------------------------------------------------

E ----5---------4-----4--------------------5----0--------3---------------------------------------

C -------4-- 2------------1----(1)--(1)-------2s4---2------2---2s4---------------------------

G -------------------------------------------------------------------------------------------

 

A ---0------0--2--2h4--2--0-------0------0--2--2h4--2p0--6--------------------------------

E ---0---------------------------0---0--------------------------------------------------------

C ---1-------------------------------1------------------------------------------------------------

G ---2---2---------------------------2-------------------------------------------------------------

 

 

Verse1:

A A D D

Somebody told me you were leavin’

A A-D D

I didn’t know

A A D D

Somebody told me you’re unhappy

C#m C#m Bm Bm

But it doesn’t show

D D C#m C#m Bm Bm

Somebody told me that you don’t want me no more

Bm Bm-E E

So you’re walkin’ out the door

A A D D

Nobody told me you’ve been cryin’

A A-D D

Every night

A A D D

Nobody told me you’d been dyin’

C#m C#m Bm Bm

But didn’t want to fight

D D C#m C#m Bm Bm

Nobody told me that you fell out of love from me

Bm Bm-E E

So I’m settin’ you free

 

A A - D D

 

[Ref:]

 

D D C#m C#m

Let me be the one to break it up

Bm Bm A A

So you won’t have to make excuses

D D C#m C#m

We don’t need to find a set up where

Bm Bm A A

Someone wins and someone loses

D D C# C#

We just have to say our love was true

F# F# B B

But has now become a lie

Bm Bm A A Bm Bm

So I’m tellin’ you I love you one last time

 

(Intro)

 

And goodbye

 

Verse2: (Do verse chords)

 

Somebody told me you still loved me

Don’t know why

Nobody told me that you only

Needed time to fly

Somebody told me that you want to come back when

Our love is true again

 

[ref then bridge]

A A

...goodbye

 

[Bridge:]

 

D D

Just turn around and walk away

C#m C#m Bm Bm-E E

You don’t have to live like this

C#m C#m F#m F#m

If you love me still then stay

D D C# C#

Don’t keep me waiting for that final kiss

D D C#m C#m

We can work together through this test

D D C#m C#m

Or we can work through it apart

D D C#m C#m

I just need to get this off my chest

Bm Bm E E

That you will always have my heart


GCEA tuning

A-2100

D-2200

C#m-6400

Bm-4200

E-4402

B-4320

F#-6600

F#m - x654

 

Intro:

 

A -----------7-----7------2----4----4------2-----2h4------2-------2h4-------------------------

E ----5---------4-----4------------------------0--------5-------0--------------------------------

C -------4-- 2------------1----(1)--(1)----------------------------------------------------------

G -------------------------------------------4----------------2-------(2)-------------------------

 

 

A -----------7-----7------2----4----2------------------------------------------------------------

E ----5---------4-----4--------------------5----0--------3---------------------------------------

C -------4-- 2------------1----(1)--(1)-------2s4---2------2---2s4---------------------------

G -------------------------------------------------------------------------------------------

 

A ---0------0--2--2h4--2--0-------0------0--2--2h4--2p0--6--------------------------------

E ---0---------------------------0---0--------------------------------------------------------

C ---1-------------------------------1------------------------------------------------------------

G ---2---2---------------------------2-------------------------------------------------------------

 

 

Verse1:

A A D D

Somebody told me you were leavin’

A A-D D

I didn’t know

A A D D

Somebody told me you’re unhappy

C#m C#m Bm Bm

But it doesn’t show

D D C#m C#m Bm Bm

Somebody told me that you don’t want me no more

Bm Bm-E E

So you’re walkin’ out the door

A A D D

Nobody told me you’ve been cryin’

A A-D D

Every night

A A D D

Nobody told me you’d been dyin’

C#m C#m Bm Bm

But didn’t want to fight

D D C#m C#m Bm Bm

Nobody told me that you fell out of love from me

Bm Bm-E E

So I’m settin’ you free

 

A A - D D

 

[Ref:]

 

D D C#m C#m

Let me be the one to break it up

Bm Bm A A

So you won’t have to make excuses

D D C#m C#m

We don’t need to find a set up where

Bm Bm A A

Someone wins and someone loses

D D C# C#

We just have to say our love was true

F# F# B B

But has now become a lie

Bm Bm A A Bm Bm

So I’m tellin’ you I love you one last time

 

(Intro)

 

And goodbye

 

Verse2: (Do verse chords)

 

Somebody told me you still loved me

Don’t know why

Nobody told me that you only

Needed time to fly

Somebody told me that you want to come back when

Our love is true again

 

[ref then bridge]

A A

...goodbye

 

[Bridge:]

 

D D

Just turn around and walk away

C#m C#m Bm Bm-E E

You don’t have to live like this

C#m C#m F#m F#m

If you love me still then stay

D D C# C#

Don’t keep me waiting for that final kiss

D D C#m C#m

We can work together through this test

D D C#m C#m

Or we can work through it apart

D D C#m C#m

I just need to get this off my chest

Bm Bm E E

That you will always have my heart


GCEA tuning

A-2100

D-2200

C#m-6400

Bm-4200

E-4402

B-4320

F#-6600

F#m - x654

 

Intro:

 

A -----------7-----7------2----4----4------2-----2h4------2-------2h4-------------------------

E ----5---------4-----4------------------------0--------5-------0--------------------------------

C -------4-- 2------------1----(1)--(1)----------------------------------------------------------

G -------------------------------------------4----------------2-------(2)-------------------------

 

 

A -----------7-----7------2----4----2------------------------------------------------------------

E ----5---------4-----4--------------------5----0--------3---------------------------------------

C -------4-- 2------------1----(1)--(1)-------2s4---2------2---2s4---------------------------

G -------------------------------------------------------------------------------------------

 

A ---0------0--2--2h4--2--0-------0------0--2--2h4--2p0--6--------------------------------

E ---0---------------------------0---0--------------------------------------------------------

C ---1-------------------------------1------------------------------------------------------------

G ---2---2---------------------------2-------------------------------------------------------------

 

 

Verse1:

A A D D

Somebody told me you were leavin’

A A-D D

I didn’t know

A A D D

Somebody told me you’re unhappy

C#m C#m Bm Bm

But it doesn’t show

D D C#m C#m Bm Bm

Somebody told me that you don’t want me no more

Bm Bm-E E

So you’re walkin’ out the door

A A D D

Nobody told me you’ve been cryin’

A A-D D

Every night

A A D D

Nobody told me you’d been dyin’

C#m C#m Bm Bm

But didn’t want to fight

D D C#m C#m Bm Bm

Nobody told me that you fell out of love from me

Bm Bm-E E

So I’m settin’ you free

 

A A - D D

 

[Ref:]

 

D D C#m C#m

Let me be the one to break it up

Bm Bm A A

So you won’t have to make excuses

D D C#m C#m

We don’t need to find a set up where

Bm Bm A A

Someone wins and someone loses

D D C# C#

We just have to say our love was true

F# F# B B

But has now become a lie

Bm Bm A A Bm Bm

So I’m tellin’ you I love you one last time

 

(Intro)

 

And goodbye

 

Verse2: (Do verse chords)

 

Somebody told me you still loved me

Don’t know why

Nobody told me that you only

Needed time to fly

Somebody told me that you want to come back when

Our love is true again

 

[ref then bridge]

A A

...goodbye

 

[Bridge:]

 

D D

Just turn around and walk away

C#m C#m Bm Bm-E E

You don’t have to live like this

C#m C#m F#m F#m

If you love me still then stay

D D C# C#

Don’t keep me waiting for that final kiss

D D C#m C#m

We can work together through this test

D D C#m C#m

Or we can work through it apart

D D C#m C#m

I just need to get this off my chest

Bm Bm E E

That you will always have my heart


GCEA tuning

A-2100

D-2200

C#m-6400

Bm-4200

E-4402

B-4320

F#-6600

F#m - x654

 

Intro:

 

A -----------7-----7------2----4----4------2-----2h4------2-------2h4-------------------------

E ----5---------4-----4------------------------0--------5-------0--------------------------------

C -------4-- 2------------1----(1)--(1)----------------------------------------------------------

G -------------------------------------------4----------------2-------(2)-------------------------

 

 

A -----------7-----7------2----4----2------------------------------------------------------------

E ----5---------4-----4--------------------5----0--------3---------------------------------------

C -------4-- 2------------1----(1)--(1)-------2s4---2------2---2s4---------------------------

G -------------------------------------------------------------------------------------------

 

A ---0------0--2--2h4--2--0-------0------0--2--2h4--2p0--6--------------------------------

E ---0---------------------------0---0--------------------------------------------------------

C ---1-------------------------------1------------------------------------------------------------

G ---2---2---------------------------2-------------------------------------------------------------

 

 

Verse1:

A A D D

Somebody told me you were leavin’

A A-D D

I didn’t know

A A D D

Somebody told me you’re unhappy

C#m C#m Bm Bm

But it doesn’t show

D D C#m C#m Bm Bm

Somebody told me that you don’t want me no more

Bm Bm-E E

So you’re walkin’ out the door

A A D D

Nobody told me you’ve been cryin’

A A-D D

Every night

A A D D

Nobody told me you’d been dyin’

C#m C#m Bm Bm

But didn’t want to fight

D D C#m C#m Bm Bm

Nobody told me that you fell out of love from me

Bm Bm-E E

So I’m settin’ you free

 

A A - D D

 

[Ref:]

 

D D C#m C#m

Let me be the one to break it up

Bm Bm A A

So you won’t have to make excuses

D D C#m C#m

We don’t need to find a set up where

Bm Bm A A

Someone wins and someone loses

D D C# C#

We just have to say our love was true

F# F# B B

But has now become a lie

Bm Bm A A Bm Bm

So I’m tellin’ you I love you one last time

 

(Intro)

 

And goodbye

 

Verse2: (Do verse chords)

 

Somebody told me you still loved me

Don’t know why

Nobody told me that you only

Needed time to fly

Somebody told me that you want to come back when

Our love is true again

 

[ref then bridge]

A A

...goodbye

 

[Bridge:]

 

D D

Just turn around and walk away

C#m C#m Bm Bm-E E

You don’t have to live like this

C#m C#m F#m F#m

If you love me still then stay

D D C# C#

Don’t keep me waiting for that final kiss

D D C#m C#m

We can work together through this test

D D C#m C#m

Or we can work through it apart

D D C#m C#m

I just need to get this off my chest

Bm Bm E E

That you will always have my heart

 

Tab comments (0)
No comment yet :(
Need help, a tip to share, or simply want to talk about this song? Start the discussion!

You must be logged in to join the discussion
or Register

 

About this song

No information about this song.